Queens Of The Stone Age - Little Sister Chords & Tabs

 

Little Sister Chords & Tabs

Queens Of The Stone Age Chords & Tabs

Version: 5 Type: Tab 0 ratings
1 star 2 stars 3 stars 4 stars 5 stars
comments

Little Sister Tab

---------------------------------------------------------------------
	Queens of the Stone Age - Little Sister (corrected)
---------------------------------------------------------------------
Tabbed By: Drew Heasman
Email: drewheasman@gmail.com
Tuning: Standard

Solos sound like they might be played with a pitchshifter
Notes in () don't have to be played
I haven't included duff or muted notes
Second solo is incomplete

  VERSE RIFF
e|------------------------------------------------------------------|
B|------------------------------------------------------------------|
G|------------(13-13-13)--------------------------------------------|
D|--14-14-14---13-13-13---11-11-11----------------------------------|
A|--14-14-14---11-11-11---11-11-11----------------------------------|
E|--12-12-12---11-11-11---9--9--9-----------------------------------|

     BRIDGE
e|------------------------------------------------------------------|
B|------------------------------------------------------------------|
G|--(13-13-13--------------13-13-13---11-11-11---11-11-11)----------|
D|---13-13-13---14-14-14---13-13-13---11-11-11---11-11-11-----------|
A|---11-11-11---14-14-14---11-11-11---9--9--9----9--9--9------------|
E|---11-11-11---12-12-12---11-11-11---9--9--9----9--9--9------------|

e|------------------------------------------------------------------|
B|------------------------------------------------------------------|
G|--(9--9--9----9--9--9--8)-----------------------------------------|
D|---9--9--9----9--9--9--8------------------------------------------|
A|---7--7--7----7--7--7--6------------------------------------------|
E|---7--7--7----7--7--7--6------------------------------------------|

    CHORUS
e|------------------(add-lib)---------------------------------------|
B|--(11----11----11h12p11----9-----9-----9-----9---)----------------|
G|---11-11-11-11-11-11-11-11-9--9--9--9--9--9--9--9-----------------|
D|---11-9--11-9--11-9--11-9--9--7--9--7--9--7--9--7-----------------|
A|---9--9--9--9--9--9--9--9--7--7--7--7--7--7--7--7-----------------|
E|--(9--9--9--9--9--9--9--9--7--7--7--7--7--7--7--7)----------------|
[ Tab from: http://www.guitartabs.cc/tabs/q/queens_of_the_stone_age/little_sister_tab_ver_5.html ]
e|----------------(add-lib)-----------------------------------------|
B|--(13----13----13h14p13---)---------------------------------------|
G|---13-13-13-13-13-13-13-13----------------------------------------|
D|---13-11-13-11-13-11-13-11----------------------------------------|
A|---11-11-11-11-11-11-11-11----------------------------------------|
E|--(11-11-11-11-11-11-11-11)---------------------------------------|

    SOLO 1
e|------------------------------------------------------------------|
B|------------------------------------------------------------------|
G|--16Br------------------------------------------------------------|
D|-------16Br-16Br--------------------------------------------------|
A|-----------------16Br---------------------------------------------|
E|------------------------------------------------------------------|

    SOLO 2
e|------------------------------------------------------------------|
B|------------------------------------------------------------------|
G|--16Br----------------16Br----------------------------------------|
D|-------16-16Br-------------16Br-16Br------------------------------|
A|----------------16Br-----------------16Br-------------------------|
E|------------------------------------------------------------------|

e|------------------------------------------------------------------|
B|------------------------------------------------------------------|
G|-16Br-18Br-18/20/21-20\18\17--------------------------------------|   x2
D|------------------------------------------------------------------|
A|------------------------------------------------------------------|
E|------------------------------------------------------------------|

e|------------------------------------------(Release bend slightly)-|
B|--------------16--16--16--17--17--17--18B-18--18--18--18--18--18--|
G|--18--18--18------------------------------------------------------|
D|------------------------------------------------------------------|
A|------------------------------------------------------------------|
E|------------------------------------------------------------------|

e|------------------------------------------------------------------|
B|--17/19\16/17------16---------------------------------------------|
G|----------------18----18-17--16-18-----16-18----------------------|
D|-----------------------------------18--------18-16-18--16-18-16---|
A|------------------------------------------------------------------|
E|------------------------------------------------------------------|


/ = Legato slide up
\ = Legato slide down
h = Hammer on
p = Pull off
B = Bend up full tone (equal to two frets)
r = Release bend
Comments