Queens Of The Stone Age - Little Sister Live Chords & Tabs

 

Little Sister Live Chords & Tabs

Queens Of The Stone Age Chords & Tabs

Version: 1 Type: Bass Tab 0 ratings
1 star 2 stars 3 stars 4 stars 5 stars
comments

Little Sister Live Bass Tab

Queens of the stone age - Little sister


Intro:
G|--------------------|
D|--------------7-6---|
A|------------------4-|
E|--------------------|

G|-----------------|-------8-8-8-----|-----------------|-----------------|
D|-------6-6-6-----|-----------------|-----------------|-----------------|
A|4-4-4------------|-7-7-7-----------|4-4-4---6-6-6----|-7-7-7-----------|
E|-----------------|-----------------|-----------------|-------4-4-4-----|


Verse

G|-----------------|-------8-8-8-----|-----------------|-----------------|
D|-------6-6-6-----|-----------------|-----------------|-------6-6-6-----|
A|4-4-4------------|-7-7-7-----------|4-4-4---6-6-6----|-7-7-7-----------|
E|-----------------|-----------------|-----------------|-----------------|X3

G|-----------------|-------8-8-8-----|-----------------|-----------------|
D|-------6-6-6-----|-----------------|-4-4-4--4-4-4----|-----------------|
A|4-4-4------------|-7-7-7-----------|-----------------|-7-7-7--7-7-7-7--|
E|-----------------|-----------------|-----------------|-----------------|


Chorus

G |-----------------|-----------------|-----------------|-----------------|
D |-4-4-4-4-4---4---|-2-2-2-2-2---2---|-6-6-6-6-6---6---|-4-4-4-4-4---4---|
A |-----------4---4-|-----------2---2-|-----------6---6-|-----------4---4-|
E |-----------------|-----------------|-----------------|-----------------|

G |-----------------|-----------------|-----------------|-----------------|
D |-4-4-4-4-4---4---|-2-2-2-2-2---2---|-6-6-6-6-6---6---|-4-4-4-----4-6-4-|
A |-----------4---4-|-----------2---2-|-----------6---6-|-------4-7-------|
E |-----------------|-----------------|-----------------|-----------------|

G |-----------------|-----------------|-----------------|-----------------|
D |-4-4-4-4-4---4---|-2-2-2-2-2---2---|-6-6-6-6-6---6---|-4---------4-6---|
A |-----------4---4-|-----------2---2-|-----------6---6-|---4-4-6-7-----7-| 
E |-----------------|-----------------|-----------------|-----------------|
[ Tab from: http://www.guitartabs.cc/tabs/q/queens_of_the_stone_age/little_sister_live_btab.html ]
G |-----------------|-----------------|-----------------|-----------------|
D |-4-4-4-4-4---4---|-2-2-2-2-2---2---|-6-6-6---6-6-6---|-6-6-6---6-6-6---|
A |-----------4---4-|-----------2---2-|-------6-------6-|-------6---------|
E |-----------------|-----------------|-----------------|-----------------|


Solo 1


G|-----------------|-------8-8-8-----|-----------------|-----------------|
D|-------6-6-6-----|-----------------|-----------------|-----------------|
A|4-4-4------------|-7-7-7-----------|4-4-4---6-6-6----|-7-7-7-----------|
E|-----------------|-----------------|-----------------|-------4-4-4-----|

Verse
Chorus

Solo 2 + outro

G|-----------------|-------8-8-8-----|-----------------|-----------------|
D|-------6-6-6-----|-----------------|-----------------|-----------------|
A|4-4-4------------|-7-7-7-----------|4-4-4---6-6-6----|-7-7-7-----------|
E|-----------------|-----------------|-----------------|-------4-4-4-----|

G|-----------------|-----------------|
D|---------6-6-6---|---------6-6-6---|
A|-4-4-4-----------|-7-7-7-----------|
E|-----------------|-----------------|

G|-----------------|-------8-8-8-----|-----------------|-----------------|
D|-------6-6-6-----|-----------------|-----------------|-------6-6-6-----|
A|4-4-4------------|-7-7-7-----------|4-4-4---6-6-6----|-7-7-7-----------|
E|-----------------|-----------------|-----------------|-----------------|X3

G|-----------------|-------8-8-8-----|-----------------|-----------------|
D|-------6-6-6-----|-----------------|-----------------|-----------------|
A|4-4-4------------|-7-7-7-----------|4-4-4---6-6-6----|-7-7-7----3-3-3--|
E|-----------------|-----------------|-----------------|-----------------|

G|-----------------|-------8-8-8-----|-----------------|-----------------|
D|-------6-6-6-----|-----------------|-----------------|-----------------|
A|4-4-4------------|-7-7-7-----------|4-4-4---6-6-6----|-7-7-7-----------|
E|-----------------|-----------------|-----------------|-------4-4-4-----|

G |-------------------------|-------------13-13-------|
D |-11-11----11-13-13----13-|-14-14-13-14-------14-13-|
A |-------11----------11----|-------------------------|
E |-------------------------|-------------------------|

G |-------------------------|-------------------------|
D |-11-11----11--9--9-----9-|-------------------------|
A |-------11----------11----|-------------11-11-------|
E |-------------------------|-12-12-11-9--------12-11-|

G |---------|
D |---------|    End
A |---------|
E |-9~--/0--|
Comments