Queens Of The Stone Age - Little Sister Chords & Tabs

 

Little Sister Chords & Tabs

Queens Of The Stone Age Chords & Tabs

Version: 3 Type: Bass Tab 0 ratings
1 star 2 stars 3 stars 4 stars 5 stars
comments

Little Sister Bass Tab

Standard tuning.

/=Slide down
~=Let ring

Intro:

*Guitar riff twice, then bass enters*

|----------------------------8-8-8----------------------------|
|---7-7-6--------6-6-6-------------------------------6-6-6----|
|---------7-4-4--------7-7-7-------4-4-4-6-6-6-7-7-7----------|
|-------------------------------------------------------------|

Verse: (x2)

|-------------------------------------------------------------|
|---------6-6-6--------------------------------6-6-6----------|
|---4-4-4-------7-7-7-6-6-6--4-4-4-6-6-6-7-7-7----------------|
|-------------------------------------------------------------|

|---------------------8-8-8-----------------------------------|
|---------6-6-6-------------4-4-4--4-4-4----------------------|
|---4-4-4-------7-7-7--------------------7-7-7--7-7-7-6-4-----|
|-------------------------------------------------------------|

Chorus:

|-------------------------------------------------------------|
|-------------------------------------------------------------|
|-9-9-9-9-9-7-9-7--7-7-7-7-7-5-7-5--11-11-11-11-11-9-11-9-----|
|-------------------------------------------------------------| (x3)

Chorus end:

|-------------------------------------------------------------|
|-------------------------------------------------------------|
|-9-9-9-9-9-7-9-7--7-7-7-7-7-5-7-5--11-11-11-9-11-11-11-9-11--|
|-------------------------------------------------------------|

|-------------------------------------------------------------|
|-------------------------------------------------------------|
|--11-11-9-11-11-11-9-11-11-11-9/-4---------------------------|
|-------------------------------------------------------------|

Post-chorus guitar solo:

|-------------------------------------------------------------|
|-------6-6-6-------------------------------6-6-6-------------|
|---4-4-------7-7-7-6-6-6-4-4-4-6-6-6-7-7-7-------------------|
|-------------------------------------------------------------|
[ Tab from: http://www.guitartabs.cc/tabs/q/queens_of_the_stone_age/little_sister_btab_ver_3.html ]
|---------------------8-8-8-----------------------------------|
|---------6-6-6-------------------------------6-6-6-----------|
|---4-4-4-------7-7-7-------4-4-4-6-6-6-7-7-7-----------------|
|-------------------------------------------------------------|

Verse x2

Chorus x3

chorus end 

Guitar solo:

|-------------------------------------------------------------|
|-------------------------------------------------------------|
|-------------------------------------------------------------|
|-------------------------------------------------------------|

|---------------------8-8-8-----------------------------------|
|---------6-6-6-----------------------------------------------|
|---4-4-4-------7-7-7-------4-4-4-6-6-6-7-7-7-----------------|
|---------------------------------------------4-4-4-----------|

|---------------------8----|
|---------6-6-6------------|
|---4-4-4-------7-7-7------|
|--------------------------|

|-------------------------------------------------------------|
|---------6-6-6-------------------------------6-6-6-----------|
|---4-4-4-------7-7-7-6-6-6-4-4-4-6-6-6-7-7-7-----------------|
|-------------------------------------------------------------| x4

End: (play fast)

|-------------------------------------------------------------------|
|-----------6-6-6-6-----------------------------------------6-6-6-6-|
|---4-4-4-4---------7-7-7-7-6-6-6-6-4-4-4-4-6-6-6-6-7-7-7-7---------|
|-------------------------------------------------------------------|

|---------------------------8-8-8-8---------------------------------|
|-----------6-6-6-6-----------------6-6-6-6-4-4-4-4-----------------|
|---4-4-4-4---------7-7-7-7-------------------------7-7-7-7-6-6-6-6-|
|-------------------------------------------------------------------|

|----------|
|----------|
|---4~~----|
|----------|

At the end, to match the guitar muting, i like to put a little
A|--4/6\-----------------|


Not the exact tab, but it sounds awesome. Tis my first tab, so please rate.
Comments