Queens Of The Stone Age - Little Sister Chords & Tabs

 

Little Sister Chords & Tabs

Queens Of The Stone Age Chords & Tabs

Version: 2 Type: Bass Tab 0 ratings
1 star 2 stars 3 stars 4 stars 5 stars
comments

Little Sister Bass Tab

Intro: (0:07)
G-------|--------------------|--------------------|
D-4-3---|----666-------999---|--------------444---|
A-----6-|44-------777-------4|44--666--777-------4|
E-------|--------------------|--------------------|

Verse 1: (0:13)
G--------------------|--------------------|--------------------|----------------------|
D----666-------999---|----666-------999---|----666-------999---|--------------444-----|
A44-------777-------4|44-------777-------4|44-------777-------4|44--666--777-------(4)|
E--------------------|--------------------|--------------------|----------------------|
(play 2 times) *()don't play second time

Chorus: (0:37)              (X3)
G-------------------------------------|------------------------------------|
D-44444444----------66666666-44444444-|-44444444----------6666666666666666-|
A----------77777777-------------------|----------77777777------------------|
E-------------------------------------|------------------------------------|
[ Tab from: http://www.guitartabs.cc/tabs/q/queens_of_the_stone_age/little_sister_btab_ver_2.html ]
Post Chorus 1: (1:01)
G--------------------|-------------------|----------------------|--------------------|
D----666-------999---|----666-------999--|----------------444---|----666-------999---|
A44-------777-------4|44-------777-------|-444--666--777-------4|44-------777-------4|
E--------------------|-------------------|----------------------|--------------------|

Verse 2: (1:13)

(same as Verse 1)

Chorus: (1:37)

(play chorus riff)

Interlude: (2:00)
(2:00 - 2:05 bass breaks)

2:05
G-------|--------------------|-------------------|--------------------|
D-4-3---|----666-------999---|----666-------999--|----------------999-|
A-----6-|44-------777-------4|44-------777-------|-444--666--777------|
E-------|--------------------|-------------------|--------------------|

G--------------------|--------------------|--------------------|----------------------|
D----666-------999---|----666-------999---|----666-------999---|--------------444-----|
A44-------777-------4|44-------777-------4|44-------777-------4|44--666--777-------(4)|
E--------------------|--------------------|--------------------|----------------------|
(play 2 times) *()don't play second time

Outro: (2:38)     (X4)
G---------------------|-----------|
D----------------4444-|-----------|
A-4444-6666-7777------|4********\\|
E---------------------|-----------|

Song ends at 3:01.
Comments