Queens Of The Stone Age - Lightning Song Chords & Tabs

 

Lightning Song Chords & Tabs

Queens Of The Stone Age Chords & Tabs

Version: 1 Type: Tab 0 ratings
1 star 2 stars 3 stars 4 stars 5 stars
comments

Lightning Song Tab

   
Band - Queens Of The Stone Age
Song - Lightning Song (Intro)
Tuning - C F Bb Eb G C
[ Tab from: http://www.guitartabs.cc/tabs/q/queens_of_the_stone_age/lightning_song_tab.html ]
C |-----------------------------------------|
G |-----------------------------------------|
Eb|---12-12-12-12---12-12-12-12-14-15-17-15-|
Bb|----x--x--x--x----x--x--x--x--x--x--x--x-|
F |---10-10-10-10---10-10-10-10-12-13-15-13-|
C |-0-------------0-------------------------|

C |---------------------------------|
G |---------------------------------|
Eb|---12-12-12-12---12-12-12-12-----|
Bb|----x--x--x--x----x--x--x--x-----|
F |---10-10-10-10---10-10-10-10-----|
C |-0-------------0-------------12~-|
Comments