Queens Of The Stone Age - In My Head Chords & Tabs

 

In My Head Chords & Tabs

Queens Of The Stone Age Chords & Tabs

Version: 6 Type: Tab 0 ratings
1 star 2 stars 3 stars 4 stars 5 stars
comments

In My Head Tab

   
#----------------------------------PLEASE NOTE---------------------------------#
#This file is the author's own work and represents their interpretation of the-#
#song. You may only use this file for private study, scholarship, or research.-#
#---------------This file was downloaded from www.taborama.com-----------------#
#------------------------------------------------------------------------------#

                                   IN MY HEAD
                     As recorded by Queens Of The Stone Age
                   (From the 2005 Album LULLABIES TO PARALYZE)

Words and Music by Josh Homme, Joey Castillo, Troy Van Leeuwen, Alain Johannes, Natasha Shneider
Transcribed by Eli Weinstein

          E5                   C5                   C#5                  A5
      0 2 x x x x          x 3 5 x x x          x 4 6 x x x          5 7 x x x x

          G5                   D5                   D#5
      3 5 x x x x          x 5 7 x x x          x 6 8 x x x

Gtr I (E A D G B E) - 'Untitled'
Gtr II (E A D G B E) - 'Untitled'
Gtr III (E A D G B E) - 'Untitled'
Gtr IV (E A D G B E) - 'Untitled'

 Intro
  Moderately Fast Rock Q=131
  (E/G#)                              (G)
 4/4
  Gtr I
  E E E E E E E E   E E E E E E E E   E E E E E E E E   E E E E E E E E
|-----------------|-----------------|-----------------|-----------------|
|-----------------|-----------------|-----------------|-----------------|
|-----------------|-----------------|-----------------|-----------------|
|-6-6-6-6-6-6-6-6-|-6-6-6-6-6-6-6-6-|-5-5-5-5-5-5-5-5-|-5-5-5-5-5-5-5-5-|
|-----------------|-----------------|-----------------|-----------------|
|-----------------|-----------------|-----------------|-----------------|


  (D/F#)                              (D#/G)
  E E E E E E E E   E E E E E E E E   E E E E E E E E   E E E E E E E E
|-----------------|-----------------|-----------------|-----------------||
|-----------------|-----------------|-----------------|-----------------||
|-----------------|-----------------|-----------------|-----------------||
|-4-4-4-4-4-4-4-4-|-4-4-4-4-4-4-4-4-|-5-5-5-5-5-5-5-5-|-5-5-5-5-5-5-5-5-||
|-----------------|-----------------|-----------------|-----------------||
|-----------------|-----------------|-----------------|-----------------||


   Verse
    (E)                       (C)
~~~~~~~~~~~~~~~~~~~~~~~~~~~~~~~~~~~~~~~~~~~~~~~~~~~~~~~
     E  E  E  E  E  E  E  E    E  E  E  E  E  E  E  E
||--------------------------|-------------------------|
||o-------------------------|-------------------------|
||--------------------------|-------------------------|
||--------------------------|-------------------------|
||o-------------------------|-------------------------|
||---0--0--0--0--0--0--0--8-|--8--8--8--8--8--8--8--9-|
|
|   Gtr II
|    E  E  E  E  E  E  E  E    E  E  E  E  E  E  E  E
||--12-12-12-12-12-12-12-12-|-12-12-12-12-12-12-12-12-|
||o-12-12-12-12-12-12-12-12-|-12-12-12-12-12-12-12-12-|
||--------------------------|-------------------------|
||--------------------------|-------------------------|
||o-------------------------|-------------------------|
||--------------------------|-------------------------|


  (C#)                      (A)
 ~~~~~~~~~~~~~~~~~~~~~~~~~~~~~~~~~~~~~~~~~~~~~~~~~
   E  E  E  E  E  E  E  E    E  E  E  E  E  E +Q
|-------------------------|----------------------------||
|-------------------------|---------------------------o||
|-------------------------|----------------------------||
|-------------------------|----------------------------||
|-------------------------|---------------------------o||
|--9--9--9--9--9--9--9--5-|--5--5--5--3--5--3-(3)------||
|
|  E  E  E  E  E  E  E  E    E  E  E  E  E  E  E   E
|-12-12-12-12-12-12-12-12-|-12-12-12-12-12-12-12--12---||
|-12-12-12-12-12-12-12-12-|-12-12-12-12-12-12-12--12--o||
|-------------------------|----------------------------||
|-------------------------|----------------------------||
|-------------------------|---------------------------o||
|-------------------------|----------------------------||


  (E)                       (C)
~~~~~~~~~~~~~~~~~~~~~~~~~~~~~~~~~~~~~~~~~~~~~~~~~~~~~
   E  E  E  E  E  E  E  E    E  E  E  E  E  E  E  E
|-------------------------|-------------------------|
|-------------------------|-------------------------|
|-------------------------|-------------------------|
|-------------------------|-------------------------|
|-------------------------|-------------------------|
|--0--0--0--0--0--0--0--8-|--8--8--8--8--8--8--8--9-|
|
| Gtr III
|  H           Q     E  E    E  E  H           Q
|-------------------------|-------------------------|
|-------------------------|-------------------------|
|-------------------------|-------------------------|
|-----------------------8-|--8--8-------------------|
|-----------------------7-|--7--7-------------------|
|-----------------------8-|--8--8-------------------|
|
| Gtr II
|  E  E  E  E  E  E  E  E    E  E  E  E  E  E  E  E
|-12-12-12-12-12-12-12-12-|-12-12-12-12-12-12-12-12-|
|-12-12-12-12-12-12-12-12-|-12-12-12-12-12-12-12-12-|
|-------------------------|-------------------------|
|-------------------------|-------------------------|
|-------------------------|-------------------------|
|-------------------------|-------------------------|


  (C#)                      (A)
 ~~~~~~~~~~~~~~~~~~~~~~~~~~~~~~~~~~~~~~~~~~~~~~~~~
   E  E  E  E  E  E  E  E    E  E  E  E  E  E +Q
|-------------------------|--------------------------|
|-------------------------|--------------------------|
|-------------------------|--------------------------|
|-------------------------|--------------------------|
|-------------------------|--------------------------|
|--9--9--9--9--9--9--9--5-|--5--5--5--3--5--3-(3)----|
|
|  W                         W
|-------------------------|--------------------------|
|-------------------------|--------------------------|
|-------------------------|--------------------------|
|-------------------------|--------------------------|
|-------------------------|--------------------------|
|-------------------------|--------------------------|
|
|  E  E  E  E  E  E  E  E    E  E  E  E  E  E  E   E
|-12-12-12-12-12-12-12-12-|-12-12-12-12-12-12-12--12-|
|-12-12-12-12-12-12-12-12-|-12-12-12-12-12-12-12--12-|
|-------------------------|--------------------------|
|-------------------------|--------------------------|
|-------------------------|--------------------------|
|-------------------------|--------------------------|


  (E)                       (C)
  Gtr I
~~~~~~~~~~~~~~~~~~~~~~~~~~~~~~~~~~~~~~~~~~~~~~~~~~~~~
   E  E  E  E  E  E  E  E    E  E  E  E  E  E  E  E
|-------------------------|-------------------------|
|-------------------------|-------------------------|
|-------------------------|-------------------------|
|-------------------------|-------------------------|
|-------------------------|-------------------------|
|--0--0--0--0--0--0--0--8-|--8--8--8--8--8--8--8--9-|
|
| Gtr II
|  E  E  E  E  E  E  E  E    E  E  E  E  E  E  E  E
|-12-12-12-12-12-12-12-12-|-12-12-12-12-12-12-12-12-|
|-12-12-12-12-12-12-12-12-|-12-12-12-12-12-12-12-12-|
|-------------------------|-------------------------|
|-------------------------|-------------------------|
|-------------------------|-------------------------|
|-------------------------|-------------------------|


  (C#)                      (A)
 ~~~~~~~~~~~~~~~~~~~~~~~~~~~~~~~~~~~~~~~~~~~~~~~~~
   E  E  E  E  E  E  E  E    E  E  E  E  E  E +Q
|-------------------------|--------------------------||
|-------------------------|--------------------------||
|-------------------------|--------------------------||
|-------------------------|--------------------------||
|-------------------------|--------------------------||
|--9--9--9--9--9--9--9--5-|--5--5--5--3--5--3-(3)----||
|
|  E  E  E  E  E  E  E  E    E  E  E  E  E  E  E   E
|-12-12-12-12-12-12-12-12-|-12-12-12-12-12-12-12--12-||
|-12-12-12-12-12-12-12-12-|-12-12-12-12-12-12-12--12-||
|-------------------------|--------------------------||
|-------------------------|--------------------------||
|-------------------------|--------------------------||
|-------------------------|--------------------------||


 Chorus
  E5
  Gtr I
   E  E  E  E  E  E  E  E    E  E  E  E  E  E  E  E
|-------------------------|-------------------------|
|-------------------------|-------------------------|
|-------------------------|-------------------------|
|-------------------------|-------------------------|
|--2--2--2--2--2--2--2--2-|--2--2--2--2--2--2--2--2-|
|--0--0--0--0--0--0--0--0-|--0--0--0--0--0--0--0--0-|
|
| Gtr III
|  E  E  E  E  E  E  E  E    E  E  E  E  E  E  E  E
|-------------------------|-------------------------|
|--9--9--9--9--9--9--9--9-|--9--9--9--9--9--9--9--9-|
|--9--9--9--9--9--9--9--9-|--9--9--9--9--9--9--9--9-|
|--9--9--9--9--9--9--9--9-|--9--9--9--9--9--9--9--9-|
|-------------------------|-------------------------|
|-------------------------|-------------------------|
|
| Gtr II
|  E  E  E  E  E  E  E  E    E  E  E  E  E  E  E  E
|-12-12-12-12-12-12-12-12-|-12-12-12-12-12-12-12-12-|
|-12-12-12-12-12-12-12-12-|-12-12-12-12-12-12-12-12-|
|-------------------------|-------------------------|
|-------------------------|-------------------------|
|-------------------------|-------------------------|
|-------------------------|-------------------------|


  G5
   E  E  E  E  E  E  E  E    E  E  E  E  E  E  E  E
|-------------------------|-------------------------|
|-------------------------|-------------------------|
|-------------------------|-------------------------|
|-------------------------|-------------------------|
|--5--5--5--5--5--5--5--5-|--5--5--5--5--5--5--5--5-|
|--3--3--3--3--3--3--3--3-|--3--3--3--3--3--3--3--3-|
|
|  E  E  E  E  E  E  E  E    E  E  E  E  E  E  E  E
|-------------------------|-------------------------|
|-12--0--0--0--0--0--0--0-|--0--0--0--0--0--0--0-12-|
|-12--0--0--0--0--0--0--0-|--0--0--0--0--0--0--0-12-|
|-12--0--0--0--0--0--0--0-|--0--0--0--0--0--0--0-12-|
|-------------------------|-------------------------|
|-------------------------|-------------------------|
|
|  E  E  E  E  E  E  E  E    E  E  E  E  E  E  E  E
|-12-12-12-12-12-12-12-12-|-12-12-12-12-12-12-12-12-|
|-12-12-12-12-12-12-12-12-|-12-12-12-12-12-12-12-12-|
|-------------------------|-------------------------|
|-------------------------|-------------------------|
|-------------------------|-------------------------|
|-------------------------|-------------------------|


  D5
   E  E  E  E  E  E  E  E    E  E  E  E  E  E  E  E
|-------------------------|-------------------------|
|-------------------------|-------------------------|
|-------------------------|-------------------------|
|--7--7--7--7--7--7--7--7-|--7--7--7--7--7--7--7--7-|
|--5--5--5--5--5--5--5--5-|--5--5--5--5--5--5--5--5-|
|-------------------------|-------------------------|
|
|  E  E  E  E  E  E  E  E    E  E  E  E  E  E  E  E
|-------------------------|-------------------------|
|--7--7--7--7--7--7--7--7-|--7--7--7--7--7--7--7--7-|
|--7--7--7--7--7--7--7--7-|--7--7--7--7--7--7--7--7-|
|--7--7--7--7--7--7--7--7-|--7--7--7--7--7--7--7--7-|
|-------------------------|-------------------------|
|-------------------------|-------------------------|
|
|  E  E  E  E  E  E  E  E    E  E  E  E  E  E  E  E
|-12-12-12-12-12-12-12-12-|-12-12-12-12-12-12-12-12-|
|-12-12-12-12-12-12-12-12-|-12-12-12-12-12-12-12-12-|
|-------------------------|-------------------------|
|-------------------------|-------------------------|
|-------------------------|-------------------------|
|-------------------------|-------------------------|


  D#5
   E  E  E  E  E  E  E  E    E  E  E  E  E  E  E  E
|-------------------------|-------------------------||
|-------------------------|-------------------------||
|-------------------------|-------------------------||
|--8--8--8--8--8--8--8--8-|--8--8--8--8--8--8--8--8-||
|--6--6--6--6--6--6--6--6-|--6--6--6--6--6--6--6--6-||
|-------------------------|-------------------------||
|
|  E  E  E  E  E  E  E  E    E  E  E  E  E  E  E  E
|-------------------------|-------------------------||
|--8--8--8--8--8--8--8--8-|--8--8--8--8--8--8--8--8-||
|--8--8--8--8--8--8--8--8-|--8--8--8--8--8--8--8--8-||
|--8--8--8--8--8--8--8--8-|--8--8--8--8--8--8--8--8-||
|-------------------------|-------------------------||
|-------------------------|-------------------------||
|
|  E  E  E  E  E  E  E  E    E  E  E  E  E  E  E  E
|-12-12-12-12-12-12-12-12-|-12-12-12-12-12-12-12-12-||
|-12-12-12-12-12-12-12-12-|-12-12-12-12-12-12-12-12-||
|-------------------------|-------------------------||
|-------------------------|-------------------------||
|-------------------------|-------------------------||
|-------------------------|-------------------------||


   Verse
    E5                   C5                        C#5
     E  E  E  E  E  E  E  E    E  E  E  E  E  E  E  E
||--------------------------|-------------------------|
||o-------------------------|-------------------------|
||--------------------------|-------------------------|
||------------------------5-|--5--5--5--5--5--5--5--6-|
||o--2--2--2--2--2--2--2--3-|--3--3--3--3--3--3--3--4-|
||---0--0--0--0--0--0--0----|-------------------------|
|
|    E  E  E  E  E  E  E  E    E  E  E  E  E  E  E  E
||--------------------------|-------------------------|
||o-------------------------|-------------------------|
||--------------------------|-------------------------|
||---6--6--6--6--6--6--6--9-|--9--9--9--9--9--9--9--9-|
||o-------------------------|-------------------------|
||--------------------------|-------------------------|
|
|    E  E  E  E  E  E  E  E    E  E  E  E  E  E  E  E
||--12-12-12-12-12-12-12-12-|-12-12-12-12-12-12-12-12-|
||o-12-12-12-12-12-12-12-12-|-12-12-12-12-12-12-12-12-|
||--------------------------|-------------------------|
||--------------------------|-------------------------|
||o-------------------------|-------------------------|
||--------------------------|-------------------------|


                       A5            G5 A5 G5
   E  E  E  E  E  E  E  E    E  E  E  E  E  E +Q       3x
|-------------------------|----------------------------||
|-------------------------|---------------------------o||
|-------------------------|----------------------------||
|--6--6--6--6--6--6--6----|----------------------------||
|--4--4--4--4--4--4--4--7-|--7--7--7--5--7--5-(5)-----o||
|-----------------------5-|--5--5--5--3--5--3-(3)------||
|
|  E  E  E  E  E  E  E  E    E  E  E  E  E  E +Q       3x
|-------------------------|----------------------------||
|-------------------------|---------------------------o||
|-------------------------|----------------------------||
|--9--9--9--9--9--9--9----|----------------------------||
|-----------------------9-|--9--9--9--7--9--7-(7)-----o||
|-------------------------|----------------------------||
|
|  E  E  E  E  E  E  E  E    E  E  E  E  E  E  E   E   3x
|-12-12-12-12-12-12-12-12-|-12-12-12-12-12-12-12--12---||
|-12-12-12-12-12-12-12-12-|-12-12-12-12-12-12-12--12--o||
|-------------------------|----------------------------||
|-------------------------|----------------------------||
|-------------------------|---------------------------o||
|-------------------------|----------------------------||


  E5                   C5                            C#5
  Gtr I
   E  E  E  E  E  E  E  E     E   E  E  E  E  E   E   E
   |  |  |  |  |  |  |  |     |   |  |  |  |  |   |   |
   /  /  /  /  /  /  /  /     /   /  /  /  /  /   /   /

  Gtr IV
   ~~~~~~~~~~~~~~~~~~~~~~~~~~~~~~~~~~~~~~~~~~~~~~~~~~~~~~
   W                         +H.                 +E   E
|-12----------------------|-(12)----------------(12)-10-|
|-------------------------|-----------------------------|
|-------------------------|-----------------------------|
|-------------------------|-----------------------------|
|-------------------------|-----------------------------|
|-------------------------|-----------------------------|
|
|  E  E  E  E  E  E  E  E     E   E  E  E  E  E   E   E
|-------------------------|-----------------------------|
|-------------------------|-----------------------------|
|-------------------------|-----------------------------|
|--6--6--6--6--6--6--6--9-|---9---9--9--9--9--9---9---9-|
|-------------------------|-----------------------------|
|-------------------------|-----------------------------|
|
|  E  E  E  E  E  E  E  E     E   E  E  E  E  E   E   E
|-12-12-12-12-12-12-12-12-|--12--12-12-12-12-12--12--12-|
|-12-12-12-12-12-12-12-12-|--12--12-12-12-12-12--12--12-|
|-------------------------|-----------------------------|
|-------------------------|-----------------------------|
|-------------------------|-----------------------------|
|-------------------------|-----------------------------|


                           A5              G5 A5 G5
    E   E  E  E  E  E   E   E     E   E  E  E  E  E +Q
    |   |  |  |  |  |   |   |     |   |  |  |  |  |  |
    /   /  /  /  /  /   /   /     /   /  /  /  /  /  /

 ~~~~~~~~~~~~~~~~~~~~~~~~~~~~~~~~~~~~
   +H.                 +E   E    +W
|-(10)----------------(10)----|----------------------------||
|--------------------------12-|-(12)-----------------------||
|-----------------------------|----------------------------||
|-----------------------------|----------------------------||
|-----------------------------|----------------------------||
|-----------------------------|----------------------------||
|
|   E   E  E  E  E  E   E   E     E   E  E  E  E  E +Q
|-----------------------------|----------------------------||
|-----------------------------|----------------------------||
|-----------------------------|----------------------------||
|---9---9--9--9--9--9---9-----|----------------------------||
|---------------------------9-|---9---9--9--7--9--7-(7)----||
|-----------------------------|----------------------------||
|
|   E   E  E  E  E  E   E   E     E   E  E  E  E  E  E   E
|--12--12-12-12-12-12--12--12-|--12--12-12-12-12-12-12--12-||
|--12--12-12-12-12-12--12--12-|--12--12-12-12-12-12-12--12-||
|-----------------------------|----------------------------||
|-----------------------------|----------------------------||
|-----------------------------|----------------------------||
|-----------------------------|----------------------------||


   Chorus
    $
    E5
     E  E  E  E  E  E  E  E     E   E  E  E  E  E  E  E
     |  |  |  |  |  |  |  |     |   |  |  |  |  |  |  |
     /  /  /  /  /  /  /  /     /   /  /  /  /  /  /  /

                                >
     ~~~~~~~~~~~~~~~~~~~~~~~~~~~~~~~~~~~~~~~~~~~~~~~~~~~~
     W                         +H            H
||--12----------------------|-(12)----------19----------|
||o-------------------------|---------------------------|
||--------------------------|---------------------------|
||--------------------------|---------------------------|
||o-------------------------|---------------------------|
||--------------------------|---------------------------|
|
|    E  E  E  E  E  E  E  E     E   E  E  E  E  E  E  E
||--------------------------|---------------------------|
||o--9--9--9--9--9--9--9--9-|---9---9--9--9--9--9--9--9-|
||---9--9--9--9--9--9--9--9-|---9---9--9--9--9--9--9--9-|
||---9--9--9--9--9--9--9--9-|---9---9--9--9--9--9--9--9-|
||o-------------------------|---------------------------|
||--------------------------|---------------------------|
|
|    E  E  E  E  E  E  E  E     E   E  E  E  E  E  E  E
||--12-12-12-12-12-12-12-12-|--12--12-12-12-12-12-12-12-|
||o-12-12-12-12-12-12-12-12-|--12--12-12-12-12-12-12-12-|
||--------------------------|---------------------------|
||--------------------------|---------------------------|
||o-------------------------|---------------------------|
||--------------------------|---------------------------|


  G5
   E  E  E  E  E  E  E  E     E   E  E  E  E  E  E  E
   |  |  |  |  |  |  |  |     |   |  |  |  |  |  |  |
   /  /  /  /  /  /  /  /     /   /  /  /  /  /  /  /

                              >
 ~~~~~~~~~~~~~~~~~~~~~~~~~~~~~~~~~~~~~~~~~~~~
   W                         +H            H
|-15----------------------|-(15)----------19-----------|
|-------------------------|----------------------------|
|-------------------------|----------------------------|
|-------------------------|----------------------------|
|-------------------------|----------------------------|
|-------------------------|----------------------------|
|
|  E  E  E  E  E  E  E  E     E   E  E  E  E  E  E  E
|-------------------------|----------------------------|
|--0--0--0--0--0--0--0--0-|---0---0--0--0--0--0--0--0--|
|--0--0--0--0--0--0--0--0-|---0---0--0--0--0--0--0--0--|
|--0--0--0--0--0--0--0--0-|---0---0--0--0--0--0--0--0--|
|-------------------------|----------------------------|
|-------------------------|----------------------------|
|
|  E  E  E  E  E  E  E  E     E   E  E  E  E  E  E  E
|-12-12-12-12-12-12-12-12-|--12--12-12-12-12-12-12-12--|
|-12-12-12-12-12-12-12-12-|--12--12-12-12-12-12-12-12--|
|-------------------------|----------------------------|
|-------------------------|----------------------------|
|-------------------------|----------------------------|
|-------------------------|----------------------------|


  D5
   E  E  E  E  E  E  E  E     E   E  E  E  E  E  E  E
   |  |  |  |  |  |  |  |     |   |  |  |  |  |  |  |
   /  /  /  /  /  /  /  /     /   /  /  /  /  /  /  /

                              >
   ~~~~~~~~~~~~~~~~~~~~~~~~~~~~~~~~~~~~~~~~~~~~~~~~~~~~
   W                         +H.                 Q
|-14----------------------|-(14)----------------15----|
|-------------------------|---------------------------|
|-------------------------|---------------------------|
|-------------------------|---------------------------|
|-------------------------|---------------------------|
|-------------------------|---------------------------|
|
|  E  E  E  E  E  E  E  E     E   E  E  E  E  E  E  E
|-------------------------|---------------------------|
|--7--7--7--7--7--7--7--7-|---7---7--7--7--7--7--7--7-|
|--7--7--7--7--7--7--7--7-|---7---7--7--7--7--7--7--7-|
|--7--7--7--7--7--7--7--7-|---7---7--7--7--7--7--7--7-|
|-------------------------|---------------------------|
|-------------------------|---------------------------|
|
|  E  E  E  E  E  E  E  E     E   E  E  E  E  E  E  E
|-12-12-12-12-12-12-12-12-|--12--12-12-12-12-12-12-12-|
|-12-12-12-12-12-12-12-12-|--12--12-12-12-12-12-12-12-|
|-------------------------|---------------------------|
|-------------------------|---------------------------|
|-------------------------|---------------------------|
|-------------------------|---------------------------|


                           1.,D.S.
                                          To Coda
  D#5
   E  E  E  E  E  E  E  E    E  E  E  E  E  E  E  E
   |  |  |  |  |  |  |  |    |  |  |  |  |  |  |  |
   /  /  /  /  /  /  /  /    /  /  /  /  /  /  /  /

 ~~~~~~~~~~~~~~~~~~~~~~~~~~~~~~~~~~~~~~~~~~
   W                         H           H
|-17----------------------|-15----------14-----------||
|-------------------------|-------------------------o||
|-------------------------|--------------------------||
|-------------------------|--------------------------||
|-------------------------|-------------------------o||
|-------------------------|--------------------------||
|
|  E  E  E  E  E  E  E  E    E  E  E  E  E  E  E  E
|-------------------------|--------------------------||
|--8--8--8--8--8--8--8--8-|--8--8--8--8--8--8--8--8-o||
|--8--8--8--8--8--8--8--8-|--8--8--8--8--8--8--8--8--||
|--8--8--8--8--8--8--8--8-|--8--8--8--8--8--8--8--8--||
|-------------------------|-------------------------o||
|-------------------------|--------------------------||
|
|  E  E  E  E  E  E  E  E    E  E  E  E  E  E  E  E
|-12-12-12-12-12-12-12-12-|-12-12-12-12-12-12-12-12--||
|-12-12-12-12-12-12-12-12-|-12-12-12-12-12-12-12-12-o||
|-------------------------|--------------------------||
|-------------------------|--------------------------||
|-------------------------|-------------------------o||
|-------------------------|--------------------------||


                             Interlude
  2.
  D#5                   B                           Em7/G
   E  E  E  E  E   E  E  E     W
   |  |  |  |  |   |  |
   /  /  /  /  /   /  /
[ Tab from: http://www.guitartabs.cc/tabs/q/queens_of_the_stone_age/in_my_head_tab_ver_6.html ]
                        Gtr I
   ~~~~~~~~~~~~~~~
   H           Q.        E    +E   E  E  E  E  E  E  E
|-15----------14-----------||--------------------------|
|--------------------------||--------------------------|
|------------------------8-||-(8)--8--8--8--8--8--8--9-|
|------------------------x-||------x--x--x--x--x--x--x-|
|------------------------6-||-(6)--6--6--6--6--6--6--7-|
|--------------------------||--------------------------|
|
|  E  E  E  E  E   E  E  E    +E   E  E  E  E  E  E  E
|--------------------------||--------------------------|
|--8--8--8--8--8---8--8----||--------------------------|
|--8--8--8--8--8---8--8----||--------------------------|
|--8--8--8--8--8---8--8--4-||-(4)--4--4--4--4--4--4----|
|------------------------2-||-(2)--2--2--2--2--2--2--5-|
|--------------------------||------------------------3-|
|
|  E  E  E  E  E   E  E  E     E   E  E  E  E  E  E  E
|-12-12-12-12-12--12-12-12-||-17--17-17-17-17-17-17-17-|
|-12-12-12-12-12--12-12-12-||-17--17-17-17-17-17-17-17-|
|--------------------------||--------------------------|
|--------------------------||--------------------------|
|--------------------------||--------------------------|
|--------------------------||--------------------------|


            B5/E          Dsus4                       B
   W                             W
  +E   E  E  E  +E   E  E  E    +E   E  E  E  E  E  E  E
|----------------------------|---------------------------|
|----------------------------|---------------------------|
|-(9)--9--9-11-(11)-11-11-12-|-(12)-12-12-12-12-12-12--8-|
|------x--x--x-------x--x--x-|-------x--x--x--x--x--x--x-|
|-(7)--7--7--9--(9)--9--9-10-|-(10)-10-10-10-10-10-10--6-|
|----------------------------|---------------------------|
|
| +E   E  E  E  +E   E  E  E    +E   E  E  E  E  E  E  E
|----------------------------|---------------------------|
|----------------------------|---------------------------|
|----------------------------|---------------------------|
|--------------------------7-|--(7)--7--7--7--7--7--7--4-|
|-(5)--5--5--2--(2)--2--2--5-|--(5)--5--5--5--5--5--5--2-|
|-(3)--3--3--0--(0)--0--0----|---------------------------|
|
|  E   E  E  E   E   E  E  E     E   E  E  E  E  E  E  E
|-17--17-17-17--17--17-17-17-|--17--17-17-17-17-17-17-17-|
|-17--17-17-17--17--17-17-17-|--17--17-17-17-17-17-17-17-|
|----------------------------|---------------------------|
|----------------------------|---------------------------|
|----------------------------|---------------------------|
|----------------------------|---------------------------|


                        Em7/G          B5/E          Dsus4
  +E   E  E  E  E  E  E  E   +E   E  E  E  +E   E  E  E
|--------------------------|----------------------------|
|--------------------------|----------------------------|
|-(8)--8--8--8--8--8--8--9-|-(9)--9--9-11-(11)-11-11-12-|
|------x--x--x--x--x--x--x-|------x--x--x-------x--x--x-|
|-(6)--6--6--6--6--6--6--7-|-(7)--7--7--9--(9)--9--9-10-|
|--------------------------|----------------------------|
|
| +E   E  E  E  E  E  E  E   +E   E  E  E  +E   E  E  E
|--------------------------|----------------------------|
|--------------------------|----------------------------|
|--------------------------|----------------------------|
|-(4)--4--4--4--4--4--4----|--------------------------7-|
|-(2)--2--2--2--2--2--2--5-|-(5)--5--5--2--(2)--2--2--5-|
|------------------------3-|-(3)--3--3--0--(0)--0--0----|
|
|  E   E  E  E  E  E  E  E    E   E  E  E   E   E  E  E
|-17--17-17-17-17-17-17-17-|-17--17-17-17--17--17-17-17-|
|-17--17-17-17-17-17-17-17-|-17--17-17-17--17--17-17-17-|
|--------------------------|----------------------------|
|--------------------------|----------------------------|
|--------------------------|----------------------------|
|--------------------------|----------------------------|


                               B
              |---3----|
   +E   E  E  E  E     E  E  E  E
|----------------------------------|
|----------------------------------|
|-(12)-12-12-12s14s===12-11-12--8--|
|-------x--x--x-----------x--x--x--|
|-(10)-10-10-10s12s===10--9-10--6--|
|----------------------------------|
|
|  +E   E  E  E     E     E  E  E
|----------------------------------|
|----------------------------------|
|----------------------------------|
|--(7)--7--7--7-----7-----7--7--4--|
|--(5)--5--5--5-----5-----5--5--2--|
|----------------------------------|
|
|   E   E  E  E     E     E  E  E
|--17--17-17-17----17----17-17-17--|
|--17--17-17-17----17----17-17-17--|
|----------------------------------|
|----------------------------------|
|----------------------------------|
|----------------------------------|


                        Em7/G          B5/E          Dsus4
  +E   E  E  E  E  E  E  E   +E   E  E  E  +E   E  E  E
|--------------------------|----------------------------|
|--------------------------|----------------------------|
|-(8)--8--8--8--8--8--8--9-|-(9)--9--9-11-(11)-11-11-12-|
|------x--x--x--x--x--x--x-|------x--x--x-------x--x--x-|
|-(6)--6--6--6--6--6--6--7-|-(7)--7--7--9--(9)--9--9-10-|
|--------------------------|----------------------------|
|
| +E   E  E  E  E  E  E  E   +E   E  E  E  +E   E  E  E
|--------------------------|----------------------------|
|--------------------------|----------------------------|
|--------------------------|----------------------------|
|-(4)--4--4--4--4--4--4----|--------------------------7-|
|-(2)--2--2--2--2--2--2--5-|-(5)--5--5--2--(2)--2--2--5-|
|------------------------3-|-(3)--3--3--0--(0)--0--0----|
|
|  E   E  E  E  E  E  E  E    E   E  E  E   E   E  E  E
|-17--17-17-17-17-17-17-17-|-17--17-17-17--17--17-17-17-|
|-17--17-17-17-17-17-17-17-|-17--17-17-17--17--17-17-17-|
|--------------------------|----------------------------|
|--------------------------|----------------------------|
|--------------------------|----------------------------|
|--------------------------|----------------------------|


                           B
   +E   E  E   E   E  E  E  E
|-----------------------------|
|-----------------------------|
|-(12)-12-12-/14-/16-14-12--8-|
|-------x--x---x---x--x--x--x-|
|-(10)-10-10-/12-/14-12-10--6-|
|-----------------------------|
|
|  +E   E  E   E   E  E  E  E
|-----------------------------|
|-----------------------------|
|-----------------------------|
|--(7)--7--7---7---7--7--7--4-|
|--(5)--5--5---5---5--5--5--2-|
|-----------------------------|
|
|   E   E  E   E   E  E  E  E
|--17--17-17--17--17-17-17-17-|
|--17--17-17--17--17-17-17-17-|
|-----------------------------|
|-----------------------------|
|-----------------------------|
|-----------------------------|


                        Em7/G          B5/E
  +E   E  E  E  E  E  E  E   +E   E  E  E  +E   E  E  +E
|--------------------------|------------------------------||
|--------------------------|------------------------------||
|-(8)--8--8--8--8--8--8--9-|-(9)--9--9-11-(11)-11-11-(11)-||
|------x--x--x--x--x--x--x-|------x--x--x-------x--x------||
|-(6)--6--6--6--6--6--6--7-|-(7)--7--7--9--(9)--9--9--(9)-||
|--------------------------|------------------------------||
|
| +E   E  E  E  E  E  E  E   +E   E  E  E  +E   E  E  +E
|--------------------------|------------------------------||
|--------------------------|------------------------------||
|--------------------------|------------------------------||
|-(4)--4--4--4--4--4--4----|------------------------------||
|-(2)--2--2--2--2--2--2--5-|-(5)--5--5--2--(2)--2--2--(2)-||
|------------------------3-|-(3)--3--3--0--(0)--0--0--(0)-||
|
|  E   E  E  E  E  E  E  E    E   E  E  E   E   E  E   E
|-17--17-17-17-17-17-17-17-|-17--17-17-17--17--17-17--17--||
|-17--17-17-17-17-17-17-17-|-17--17-17-17--17--17-17--17--||
|--------------------------|------------------------------||
|--------------------------|------------------------------||
|--------------------------|------------------------------||
|--------------------------|------------------------------||


   Bridge
    E5                   C5                        C#5
     PM------------------------------------------------
     E  E  E  E  E  E  E  E    E  E  E  E  E  E  E  E
||--------------------------|-------------------------|
||o-------------------------|-------------------------|
||--------------------------|-------------------------|
||------------------------5-|--5--5--5--5--5--5--5--6-|
||o--2--2--2--2--2--2--2--3-|--3--3--3--3--3--3--3--4-|
||---0--0--0--0--0--0--0----|-------------------------|
|
|    E  E  E  E  E  E  E  E    E  E  E  E  E  E  E  E
||--------------------------|-------------------------|
||o-------------------------|-------------------------|
||--------------------------|-------------------------|
||---6--6--6--6--6--6--6--9-|--9--9--9--9--9--9--9--9-|
||o-------------------------|-------------------------|
||--------------------------|-------------------------|
|
|    E  E  E  E  E  E  E  E    E  E  E  E  E  E  E  E
||--12-12-12-12-12-12-12-12-|-12-12-12-12-12-12-12-12-|
||o-12-12-12-12-12-12-12-12-|-12-12-12-12-12-12-12-12-|
||--------------------------|-------------------------|
||--------------------------|-------------------------|
||o-------------------------|-------------------------|
||--------------------------|-------------------------|


                       A5            G5 A5 G5
 ---------------------------------------------|
   E  E  E  E  E  E  E  E    E  E  E  E  E  E +Q
|-------------------------|----------------------------||
|-------------------------|---------------------------o||
|-------------------------|----------------------------||
|--6--6--6--6--6--6--6----|----------------------------||
|--4--4--4--4--4--4--4--7-|--7--7--7--5--7--5-(5)-----o||
|-----------------------5-|--5--5--5--3--5--3-(3)------||
|
|  E  E  E  E  E  E  E  E    E  E  E  E  E  E +Q
|-------------------------|----------------------------||
|-------------------------|---------------------------o||
|-------------------------|----------------------------||
|--9--9--9--9--9--9--9----|----------------------------||
|-----------------------9-|--9--9--9--7--9--7-(7)-----o||
|-------------------------|----------------------------||
|
|  E  E  E  E  E  E  E  E    E  E  E  E  E  E  E   E
|-12-12-12-12-12-12-12-12-|-12-12-12-12-12-12-12--12---||
|-12-12-12-12-12-12-12-12-|-12-12-12-12-12-12-12--12--o||
|-------------------------|----------------------------||
|-------------------------|----------------------------||
|-------------------------|---------------------------o||
|-------------------------|----------------------------||


 Breakdown
  E5
  Gtr IV
   Q     H           Q       W
|-19----------------19----|-------------------------|
|-------21----------------|-21----------------------|
|-------------------------|-------------------------|
|-------------------------|-------------------------|
|-------------------------|-------------------------|
|-------------------------|-------------------------|
|
| Gtr I
|  PM------------------------------------------------
|  E  E  E  E  E  E  E  E    E  E  E  E  E  E  E  E
|-------------------------|-------------------------|
|-------------------------|-------------------------|
|-------------------------|-------------------------|
|-------------------------|-------------------------|
|--2--2--2--2--2--2--2--2-|--2--2--2--2--2--2--2--2-|
|--0--0--0--0--0--0--0--0-|--0--0--0--0--0--0--0--0-|
|
| Gtr II
|  E  E  E  E  E  E  E  E    E  E  E  E  E  E  E  E
|-12-12-12-12-12-12-12-12-|-12-12-12-12-12-12-12-12-|
|-12-12-12-12-12-12-12-12-|-12-12-12-12-12-12-12-12-|
|-------------------------|-------------------------|
|-------------------------|-------------------------|
|-------------------------|-------------------------|
|-------------------------|-------------------------|


  G5
   W                         +W
|-------------------------|---------------------------|
|-20----------------------|-(20)----------------------|
|-------------------------|---------------------------|
|-------------------------|---------------------------|
|-------------------------|---------------------------|
|-------------------------|---------------------------|
|
|-----------------------------------------------|
|  E  E  E  E  E  E  E  E     E   E  E  E  E  E  E  E
|-------------------------|---------------------------|
|-------------------------|---------------------------|
|-------------------------|---------------------------|
|-------------------------|---------------------------|
|--5--5--5--5--5--5--5--5-|---5---5--5--5--5--5--5--5-|
|--3--3--3--3--3--3--3--3-|---3---3--3--3--3--3--3--3-|
|
|  E  E  E  E  E  E  E  E     E   E  E  E  E  E  E  E
|-12-12-12-12-12-12-12-12-|--12--12-12-12-12-12-12-12-|
|-12-12-12-12-12-12-12-12-|--12--12-12-12-12-12-12-12-|
|-------------------------|---------------------------|
|-------------------------|---------------------------|
|-------------------------|---------------------------|
|-------------------------|---------------------------|


  D5
   W                         +W
|-------------------------|---------------------------|
|-19----------------------|-(19)----------------------|
|-------------------------|---------------------------|
|-------------------------|---------------------------|
|-------------------------|---------------------------|
|-------------------------|---------------------------|
|
|  PM--------------------------------------------------
|  E  E  E  E  E  E  E  E     E   E  E  E  E  E  E  E
|-------------------------|---------------------------|
|-------------------------|---------------------------|
|-------------------------|---------------------------|
|--7--7--7--7--7--7--7--7-|---7---7--7--7--7--7--7--7-|
|--5--5--5--5--5--5--5--5-|---5---5--5--5--5--5--5--5-|
|-------------------------|---------------------------|
|
|  E  E  E  E  E  E  E  E     E   E  E  E  E  E  E  E
|-12-12-12-12-12-12-12-12-|--12--12-12-12-12-12-12-12-|
|-12-12-12-12-12-12-12-12-|--12--12-12-12-12-12-12-12-|
|-------------------------|---------------------------|
|-------------------------|---------------------------|
|-------------------------|---------------------------|
|-------------------------|---------------------------|


                                          D.S. al Coda
  D#5
   W                            +W
|----------------------------|---------------------------||
|-19b20----------------------|-(19)----------------------||
|----------------------------|---------------------------||
|----------------------------|---------------------------||
|----------------------------|---------------------------||
|----------------------------|---------------------------||
|
|-----------------------------------------------------|
|  E     E  E  E  E  E  E  E     E   E  E  E  E  E  E  E
|----------------------------|---------------------------||
|----------------------------|---------------------------||
|----------------------------|---------------------------||
|--8-----8--8--8--8--8--8--8-|---8---8--8--8--8--8--8--8-||
|--6-----6--6--6--6--6--6--6-|---6---6--6--6--6--6--6--6-||
|----------------------------|---------------------------||
|
|  E     E  E  E  E  E  E  E     E   E  E  E  E  E  E  E
|-12----12-12-12-12-12-12-12-|--12--12-12-12-12-12-12-12-||
|-12----12-12-12-12-12-12-12-|--12--12-12-12-12-12-12-12-||
|----------------------------|---------------------------||
|----------------------------|---------------------------||
|----------------------------|---------------------------||
|----------------------------|---------------------------||


 Guitar Solo
  &
  (E)
  Gtrs I, III
                        ~~~~~~~~~~~~~~~~~
   E  E  E  E  E  E  E  E    +E   E  +E   E  E  E  E  E
|-------------------------|-----------------------------|
|-------------------------|-----------------------------|
|--9h11-11-11-11-11-11-11-|-(11)-11-(11)-11-11--9-11--9-|
|-------------------------|-----------------------------|
|-------------------------|-----------------------------|
|-------------------------|-----------------------------|
|
| Gtr II
|  E  E  E  E  E  E  E  E     E   E   E   E  E  E  E  E
|-12-12-12-12-12-12-12-12-|--12--12--12--12-12-12-12-12-|
|-12-12-12-12-12-12-12-12-|--12--12--12--12-12-12-12-12-|
|-------------------------|-----------------------------|
|-------------------------|-----------------------------|
|-------------------------|-----------------------------|
|-------------------------|-----------------------------|


  (G)
                        ~~~~~~~~~~~~~~~~~
   E  E  E  E  E  E  E  E    +E   E  +E   E  +E   E  E  E
|-------------------------|-------------------------------|
|-------------------------|-------------------------------|
|--9h11-11-11-11-11-11-11-|-(11)-11-(11)-11-(11)--9-11--9-|
|-------------------------|-------------------------------|
|-------------------------|-------------------------------|
|-------------------------|-------------------------------|
|
|  E  E  E  E  E  E  E  E     E   E   E   E   E   E  E  E
|-12-12-12-12-12-12-12-12-|--12--12--12--12--12--12-12-12-|
|-12-12-12-12-12-12-12-12-|--12--12--12--12--12--12-12-12-|
|-------------------------|-------------------------------|
|-------------------------|-------------------------------|
|-------------------------|-------------------------------|
|-------------------------|-------------------------------|


  (D)
                          ~~~~~~~~~   ~~~~~~~
   E  E  E  E  E  E  E A  E    +E  A  E  +E  A  E  +E   E  E  E
|---------------------------|-----------------------------------|
|---------------------------|-----------------------------------|
|--9h11-11-11-11--9-11-9s11-|-(11)-9s11-(11)-9s11-(11)--9-11--9-|
|---------------------------|-----------------------------------|
|---------------------------|-----------------------------------|
|---------------------------|-----------------------------------|
|
|  E  E  E  E  E  E  E    E     E     E   E     E   E   E  E  E
|-12-12-12-12-12-12-12---12-|--12----12--12----12--12--12-12-12-|
|-12-12-12-12-12-12-12---12-|--12----12--12----12--12--12-12-12-|
|---------------------------|-----------------------------------|
|---------------------------|-----------------------------------|
|---------------------------|-----------------------------------|
|---------------------------|-----------------------------------|


  (D#)
   E  E  E  A  E  E  E  A  E  E    E  E  E  E  E  E  E  E
|-------------------------------|--------------------------|
|-------------------------------|--------------------------|
|-11-11-11-11s12-12-12-12s14-14-|-14-12-12-12-11-12-11--9--|
|-------------------------------|--------------------------|
|-------------------------------|--------------------------|
|-------------------------------|--------------------------|
|
|  E  E  E     E  E  E     E  E    E  E  E  E  E  E  E  E
|-12-12-12----12-12-12----12-12-|-12-12-12-12-12-12-12-12--|
|-12-12-12----12-12-12----12-12-|-12-12-12-12-12-12-12-12--|
|-------------------------------|--------------------------|
|-------------------------------|--------------------------|
|-------------------------------|--------------------------|
|-------------------------------|--------------------------|


  (E)
   E  E  E  E  E  E  E  E    A  E  E  E  E  A  E  E  E  E
|-------------------------|-------------------------------|
|-------------------------|-------------------------------|
|--9h11-11-11-11--9-11-11-|-11s14-11-14-14-14s16-14-------|
|-------------------------|-------------------------16-14-|
|-------------------------|-------------------------------|
|-------------------------|-------------------------------|
|
|  E  E  E  E  E  E  E  E       E  E  E  E     E  E  E  E
|-12-12-12-12-12-12-12-12-|----12-12-12-12----12-12-12-12-|
|-12-12-12-12-12-12-12-12-|----12-12-12-12----12-12-12-12-|
|-------------------------|-------------------------------|
|-------------------------|-------------------------------|
|-------------------------|-------------------------------|
|-------------------------|-------------------------------|


  (G)
   E  E  E  E  E  E  E  E    A  E  E  E  E  A  E  E  E  E
|-------------------------|-------------------------------|
|-------------------------|----------------------15-------|
|--9h11-11-11-11--9-11-11-|-11s14-11-14-14-14s16----16-14-|
|-------------------------|-------------------------------|
|-------------------------|-------------------------------|
|-------------------------|-------------------------------|
|
|  E  E  E  E  E  E  E  E       E  E  E  E     E  E  E  E
|-12-12-12-12-12-12-12-12-|----12-12-12-12----12-12-12-12-|
|-12-12-12-12-12-12-12-12-|----12-12-12-12----12-12-12-12-|
|-------------------------|-------------------------------|
|-------------------------|-------------------------------|
|-------------------------|-------------------------------|
|-------------------------|-------------------------------|


  (D)
   E  E  E  E  E  E  E  E    A  E  E  E  E  A  E  E  E  E
|-------------------------|-------------------------------|
|-------------------------|-------------------------------|
|--9h11-11-11-11--9-11-11-|-11s14-11-14-14-14s16-14-------|
|-------------------------|-------------------------16-14-|
|-------------------------|-------------------------------|
|-------------------------|-------------------------------|
|
|  E  E  E  E  E  E  E  E       E  E  E  E     E  E  E  E
|-12-12-12-12-12-12-12-12-|----12-12-12-12----12-12-12-12-|
|-12-12-12-12-12-12-12-12-|----12-12-12-12----12-12-12-12-|
|-------------------------|-------------------------------|
|-------------------------|-------------------------------|
|-------------------------|-------------------------------|
|-------------------------|-------------------------------|


  (D#)
   E  E  E  A  E  +E   E  A  E  +E     E  E   E  E  E  E  E  E
|-----------------------------------|--------------------------||
|-----------------------------------|-------/12----------------||
|-11-11--9-11s12-(12)--9-11s14-(14)-|-12-14-----14-12-11-------||
|-----------------------------------|--------------------14-12-||
|-----------------------------------|--------------------------||
|-----------------------------------|--------------------------||
|
|  E  E  E     E   E   E     E   E     E  E   E  E  E  E  E  E
|-12-12-12----12--12--12----12--12--|-12-12--12-12-12-12-12-12-||
|-12-12-12----12--12--12----12--12--|-12-12--12-12-12-12-12-12-||
|-----------------------------------|--------------------------||
|-----------------------------------|--------------------------||
|-----------------------------------|--------------------------||
|-----------------------------------|--------------------------||


   Out-Chorus
    (E/Ab)
    Gtr IV
                         >
     ~~~~~~~~~~~~~~~~~~~~~~~~~~~~~~~~~~~~~~~
     W                  +H         H
||--12---------------|-(12)-------19-------|
||o------------------|---------------------|
||-------------------|---------------------|
||-------------------|---------------------|
||o------------------|---------------------|
||-------------------|---------------------|
|
|   Gtrs I, III
|    E E E E E E E E     E  E E E  E E E E
||-------------------|---------------------|
||o------------------|---------------------|
||-------------------|---------------------|
||---6-6-6-6-6-6-6-6-|---6--6-6-6--6-6-6-6-|
||o------------------|---------------------|
||-------------------|---------------------|


  (G)
                       >
 ~~~~~~~~~~~~~~~~~~~~~~~~~~~~~~~~~~
   W                  +H         H
|-15---------------|-(15)-------19--------|
|------------------|----------------------|
|------------------|----------------------|
|------------------|----------------------|
|------------------|----------------------|
|------------------|----------------------|
|
|  E E E E E E E E     E  E E E  E E E E
|------------------|----------------------|
|------------------|----------------------|
|------------------|----------------------|
|--5-5-5-5-5-5-5-5-|---5--5-5-5--5-5-5-5--|
|------------------|----------------------|
|------------------|----------------------|


  (D/F#)
                       >
   ~~~~~~~~~~~~~~~~~~~~~~~~~~~~~~~~~~~~~~~
   W                  +H.            Q
|-14---------------|-(14)-----------14---|
|------------------|---------------------|
|------------------|---------------------|
|------------------|---------------------|
|------------------|---------------------|
|------------------|---------------------|
|
|  E E E E E E E E     E  E E E E E  E E
|------------------|---------------------|
|------------------|---------------------|
|------------------|---------------------|
|--4-4-4-4-4-4-4-4-|---4--4-4-4-4-4--4-4-|
|------------------|---------------------|
|------------------|---------------------|


 1.
  (D#/G)
 ~~~~~~~~~~~~~~~~~~~~~~~~~~~~~~~~
   W                  H        H
|-17---------------|-15-------14--------||
|------------------|-------------------o||
|------------------|--------------------||
|------------------|--------------------||
|------------------|-------------------o||
|------------------|--------------------||
|
|  E E E E E E E E    E E E E  E E E E
|------------------|--------------------||
|------------------|-------------------o||
|------------------|--------------------||
|--5-5-5-5-5-5-5-5-|--5-5-5-5--5-5-5-5--||
|------------------|-------------------o||
|------------------|--------------------||


  2.
  N.C.
   W              +W
|-17b18--------|-(17)----*|
|--------------|---------*|
|--------------|---------*|
|--------------|---------*|
|--------------|---------*|
|--------------|---------*|
|
|  W              +W
|--------------|---------*|
|--------------|---------*|
|--------------|---------*|
|--5-----------|--(5)----*|
|--------------|---------*|
|--------------|---------*|


Duration Legend
---------------
W - whole; H - half; Q - quarter; E - 8th; S - 16th; T - 32nd; X - 64th; a - acciaccatura
+ - note tied to previous; . - note dotted; .. - note double dotted
Uncapitalized letters represent notes that are staccato (1/2 duration)
Irregular groupings are notated above the duration line
Duration letters will always appear directly above the note/fret number it represents the
duration for.  Duration letters with no fret number below them represent rests.  Multi-
bar rests are notated in the form Wxn, where n is the number of bars to rest for.  Low
melody durations appear below the staff

Tablature Legend
----------------
 h   - hammer-on
 p   - pull-off
 b   - bend
 pb  - pre-bend
 r   - bend release (if no number after the r, then release immediately)
 /\  - slide into or out of (from/to "nowhere")
 s   - legato slide
 S   - shift slide
  - natural harmonic
[n]  - artificial harmonic
n(n) - tapped harmonic
 ~   - vibrato
 tr  - trill
 T   - tap
 TP  - trem. picking
 PM  - palm muting
\n/  - tremolo bar dip; n = amount to dip
 \n  - tremolo bar down
 n/  - tremolo bar up
/n\  - tremolo bar inverted dip
 =   - hold bend; also acts as connecting device for hammers/pulls
 <>  - volume swell (louder/softer)
 x   - on rhythm slash represents muted slash
 o   - on rhythm slash represents single note slash

Misc Legend
-----------
 |  - bar
||  - double bar
||o - repeat start
o|| - repeat end
*|  - double bar (ending)
 :  - bar (freetime)
 $  - Segno
 &  - Coda
Tempo markers -  = BPM(8/16=s8/s16), where s8 = swing 8ths, s16 = swing 16ths


***************************************************************************************
* Generated using Power Tab Editor by Brad Larsen - http://powertab.guitarnetwork.org *
***************************************************************************************


Downloaded from www.taborama.com

================================================================================
Comments