Queens Of The Stone Age - In My Head Chords & Tabs

 

In My Head Chords & Tabs

Queens Of The Stone Age Chords & Tabs

Version: 2 Type: Tab 0 ratings
1 star 2 stars 3 stars 4 stars 5 stars
comments

In My Head Tab

Great song from NFSU2 Game Trax !!
Itīs my first tab so I leave it open for corrections!
email: nvmaniac@yahoo.com

Drop to D tuning! If you want to you can also play the power chords in normal tuning ,I prefer it this way!

Intro: (Also played several times throughout the song)
----------------------------------------------------------------|
----------------------------------------------------------------|
----------------------------------------------------------------|
----------------------------------------------------------------|
-11-11-11-11-11-11-11-11-11-11-11-11-11-11-11-11--10-10-10-10-10|
----------------------------------------------------------------|

----------------------------------------------------------------|
----------------------------------------------------------------|
----------------------------------------------------------------|
----------------------------------------------------------------|
-10-10-10-10-10-10-10-10-10-10-10-10--9-9-9-9-9-9-9-9-9-9-9-9-9-|
----------------------------------------------------------------|
[ Tab from: http://www.guitartabs.cc/tabs/q/queens_of_the_stone_age/in_my_head_tab_ver_2.html ]
----------------------------------------------------------------|
----------------------------------------------------------------|
----------------------------------------------------------------|
----------------------------------------------------------------|
-9-9-9-10-10-10-10-10-10-10-10-10-10-10-10-10-10-10-10-10-------|
----------------------------------------------------------------|


Main Riff:
You can play it through the whole song, you have to listen to the song to get the timing!


Start with P.M then release slowly throughout the verse.
----------------------------------------------------------------|
----------------------------------------------------------------|
----------------------------------------------------------------|
----------------------------------------------------------------|
-14-14-14-14-14-14-14-14--10-10-10-10-10-10-10-10-11-11-11-11---|
-14-14-14-14-14-14-14-14--10-10-10-10-10-10-10-10-11-11-11-11---|



-------------------------------|
-------------------------------|
-------------------------------|
-------------------------------|
11-11-11-11-7-7-7-7-7---5h7-5--|
11-11-11-11-7-7-7-7-7---5h7-5--|


I couldnīt figure out the solo but Iīm trying real hard.
Just listen to this song to figure out the order..


Tabbed by Lucien Danigo
Comments