Queens Of The Stone Age - In My Head Chords & Tabs

 

In My Head Chords & Tabs

Queens Of The Stone Age Chords & Tabs

Version: 5 Type: Bass Tab 0 ratings
1 star 2 stars 3 stars 4 stars 5 stars
comments

In My Head Bass Tab

Firstly, Qotsa kickass!

Im a guitarist but i play bass sometimes at school with my mates so i tabbed the song 
you all seeing the other ones are totally crap.

(this is just one way of playing it, you could play it using the D string aswell which 
probabally easier but this looks cooler)

Thanks alot Seya!

Band: Queens of the Stone age
Album: Lullabies To Paralyze
Written by: Josh Homme, Troy Van Leeuwan, Mark Lanegan and Joey Castillo
(probabally)
===========================================================================

0:00
Intro: x1
G:------------------------------------------------------------------------|
D:------------------------------------------------------------------------|
A:7-7-7-7-7-7-7-7-7-7-7-7-5h7-5-----------------------------5h7-5---------|
E:------------------------------7-5-3-3-3-3-3-3-3-3-3-3-3-3-------7-5-----|

G:------------------------------------------------------------------------|
D:------------------------------------------------------------------------|
A:5-5-5-5-5-5-5-5-5-5-5-5-5-5-5-5-6-6-6-6-6-6-6-6-6-6-6-6-6-6-6-66666666--|
E:------------------------------------------------------------------------|

===========================================================================

0:14
Verse: x4
G:------------------------------------------------------------------------|
D:------------------------------------------------------------------------|
A:-2-2-2-2-2-2-3-3-3-3-3-3-3-3-4-4-4-4-4-4-4-4----------------------------|
E:----------------------------------------------5-5-5-3-5-3-3-3-----------|

===========================================================================

0:42
Chorus: x1 (too big to fit in one)
G:------------------------------------------------------------------------|
D:------------------------------------------------------------------------|
A:---------------------------------5-5-5-5-5-5-5-5------------------------|
E:-0-0-0-0-0-0-0-0-3-3-3-3-3-3-3-3----------------------------------------|

G:------------------------------------------------------------------------|
D:------------------------------------------------------------------------|
A:-6-6-6-6-6-6-6-6-6-6-6-6-6-6-6------------------------------------------|
E:------------------------------------------------------------------------|


===========================================================================

0:55
Verse: x4
G:------------------------------------------------------------------------|
D:------------------------------------------------------------------------|
A:-2-2-2-2-2-2-3-3-3-3-3-3-3-3-4-4-4-4-4-4-4-4----------------------------|
E:----------------------------------------------5-5-5-3-5-3-3-3-----------|


===========================================================================
[ Tab from: http://www.guitartabs.cc/tabs/q/queens_of_the_stone_age/in_my_head_btab_ver_5.html ]
1:26
Chorus: x1 (too big to fit in one)
G:------------------------------------------------------------------------|
D:------------------------------------------------------------------------|
A:---------------------------------5-5-5-5-5-5-5-5------------------------|
E:-0-0-0-0-0-0-0-0-3-3-3-3-3-3-3-3----------------------------------------|

G:------------------------------------------------------------------------|
D:------------------------------------------------------------------------|
A:-6-6-6-6-6-6-6-6-6-6-6-6-6-6-6------------------------------------------|
E:------------------------------------------------------------------------|


===========================================================================

1:54
Solo: x3
G:------------------------------------------------------------------------|
D:------------------------------------------------------------------------|
A:-/6-6-6-6-6-6-2-2-----/6-6-6-6-6-6-2-2----------------------------------|
E:------------------3-3------------------3-3------------------------------|

===========================================================================

2:15
Bridge: x4
G:------------------------------------------------------------------------|
D:------------------------------------------------------------------------|
A:-2-2-2-2-2-2-3-3-3-3-3-3-3-3-4-4-4-4-4-4-4-4----------------------------|
E:----------------------------------------------5-5-5-3-5-3-3-3-----------|


===========================================================================

2:44
Chorus: x3 (too big to fit in one stave)
G:------------------------------------------------------------------------|
D:------------------------------------------------------------------------|
A:---------------------------------5-5-5-5-5-5-5-5------------------------|
E:-0-0-0-0-0-0-0-0-3-3-3-3-3-3-3-3----------------------------------------|

G:------------------------------------------------------------------------|
D:------------------------------------------------------------------------|
A:-6-6-6-6-6-6-6-6-6-6-6-6-6-6-6------------------------------------------|
E:------------------------------------------------------------------------|

===========================================================================


3:26
Outro:
G:------------------------------------------------------------------------|
D:------------------------------------------------------------------------|
A:-2-2-2-2-2-2-3-3-3-3-3-3-3-3-4-4-4-4-4-4-4-4----------------------------|
E:----------------------------------------------5-5-5-3-5-3-3-3-----------|

===========================================================================

Thanks alot guys. (all from a guy who doesnt play bass)

Email: pearljam1942@hotmail.com
Checkout my bands website www.freewebs.com/henpect
Comments