Queens Of The Stone Age - In My Head Chords & Tabs

 

In My Head Chords & Tabs

Queens Of The Stone Age Chords & Tabs

Version: 4 Type: Bass Tab 0 ratings
1 star 2 stars 3 stars 4 stars 5 stars
comments

In My Head Bass Tab

well this is my first tab...and since not many good 
"Queen of the Stone Age - in my head" bass tabs are out there id thought id do one..

Riff 1 (intro)
|--------------------------------------------------------------|
|--------------------------------------------------------------|
|-7(12x)-5/7-5-5------5/7-5-5-5(16x)-6(14x)--------------------|
|-------------7--3(12x)----7---------------7\------------------|

Riff 2 (verse)
|--------------------------------------------------------------|
|--------------------------------------------------------------|
|-------3(8x)-4(8x)--------------------------------------------|
|-0(8x)-------------5(3x)-3-5-3--------------------------------|

[ Tab from: http://www.guitartabs.cc/tabs/q/queens_of_the_stone_age/in_my_head_btab_ver_4.html ]
Riff 3 (chorus)
|--------------------------------------------------------------|
|--------------------------------------------------------------|
|--------5/7-5-5--------5/7-5-5(12x)-6(12x)--------------------|
|-0(12x)------7--3(12x)------7---------------------------------|

Riff 4 (interlude)
|--------------------------------------------------------------|
|--------------------------------------------------------------|
|-------------------5(7x)--------------------------------------|
|-7(7x)-3(3x)-0(3x)--------------------------------------------|

Play order:
Riff 1
Riff 2(4x)
Riff 3
Riff 2(4x)
Riff 3(2x)
Riff 4(4x)
Riff 2(2x)
Riff 3(3x)

umm i think thats it(hope its right =/)...its pretty easy. if you find some flaws..i
think you can build off from what i gave you yeah? well good luck its a fun song to
play on bass
Comments