Queens Of The Stone Age - If Only Chords & Tabs

 

If Only Chords & Tabs

Queens Of The Stone Age Chords & Tabs

Version: 6 Type: Tab 0 ratings
1 star 2 stars 3 stars 4 stars 5 stars
comments

If Only Tab

   
-------------------------------------------------------------------------------
			Queens of the Stone Age - If Only
-------------------------------------------------------------------------------
Tabbed by: Drew Heasman
Email: drewheasman@gmail.com

Tuning: Originally in C, but transposed for Standard (E,A,D,G,B,E)

I've written what Josh plays most times in terms of strumming.
There are plenty of changes to the strumming so don't play it rigid!
I got bored in solo 1 so it's incomplete.

Intro/Verse/Outro
e|---------------------------------------------------------------------------|
B|---------------------------------------------------------------------------|
G|---------------------------------------------------------------------------|
D|9-9-9--11--11--8--8--8--10------------6h8--8--8--6-6-6-8--8----------------|
A|9-9-9--11--11--8--8--8--10------------6h8--8--8--6-6-6-8--8----------------|
E|9-9-9--9---9---8--8--8--8-------------6----6--6--6-6-6-6--6----------------|
                            (Mute)
                                  ^^^
                                  |||
                        Stop here for outro

Chorus
e|---------------------------------------------------------------------------|
B|---------------------------------------------------------------------------|
G|---------------------------------------------------------------------------|
D|-8------8------11-----11-----11-11-11-11-----------------------------------|
A|-8------8------11-----11-----11-11-11-11-----------------------------------|
E|-6------6------9------9------9--9--9--9------------------------------------|
           (Mute)

Solo 1 part 1
e|---------------------------------------------------------------------------|
B|---------------------------------------------------------------------------|
G|---------------------------------------------------------------------------|
D|-------5b-5r---------------------------------------------------------------|
A|-----4-------4-6-6b-6-4---------4--4--4h6p4\3--3h4p3\1--1--1---------------|
E|-4h6--------------------6--4h6--------------------------------4--6--6------|

[ Tab from: http://www.guitartabs.cc/tabs/q/queens_of_the_stone_age/if_only_tab_ver_6.html ]
Solo 1 part 2
e|---------------------------------------------------------------------------|
B|---------------------------------------------------------------------------|
G|----6-8-6h8p6---6-8p6-8/10-10-10-------------------------------------------|
D|-/8-----------8--------------------(Bored)---------------------------------|
A|---------------------------------------------------------------------------|
E|---------------------------------------------------------------------------|


Solo 2
e|---------------------------------------------------------------------------|
B|---------------------------------------------------------------------------|
G|---------------------------------------------------------------------------|
D|----------13-13--13-13--13-13--13-13--13-13--13-13--13-13--13-13--13--13---|
A|---------------------------------------------------------------------------|
E|---------------------------------------------------------------------------|
  (Feedback)

e|---------------------------------------------------------------------------|
B|---------------------------------------------------------------------------|
G|---------------------------------------------------------------------------|
D|-11--11--13p11-----------------------------------------11-13-13--13-13-----|
A|---------------13-11--11-13-13--13-13-13--13-13-13--13---------------------|
E|---------------------------------------------------------------------------|

e|---------------------------------------------------------------------------|
B|---------------------------------------------------------------------------|
G|---------------------------------------------------------------------------|
D|-13-13--13-13--13-13--13-13--13B-13--11-13-11----------11----11-13---------|
A|----------------------------------------------13-11-13----13-------13------|
E|---------------------------------------------------------------------------|

e|---------------------------------------------------------------------------|
B|---------------------------------------------------------------------------|
G|---------------------------------------------------------------------------|
D|---------------------------------------------------------------------------|
A|-13-13-13------------------------------------------------------------------|
E|---------------------------------------------------------------------------|


| /  slide up
| \  slide down
| h  hammer-on
| p  pull-off
| ~  vibrato
| +  harmonic
| x  mute note
| b  bend semi-tone (1 fret value)
| B  bend tone (2 fret value)
| r  release bend
===============================================================================
Comments