Queens Of The Stone Age - If Only Chords & Tabs


If Only Chords & Tabs

Queens Of The Stone Age Chords & Tabs

Version: 5 Type: Bass Tab 0 ratings
1 star 2 stars 3 stars 4 stars 5 stars

If Only Bass Tab

Song: If only
ALbum: Queens of the stone age
ARtist: Queens of the stone age
Bassist: Nick Oliveri

Intro: (wait about two and a quarter bars, then enter)
E |---------------------------------------------|
B |-----9---------------------------------------|
[ Tab from: http://www.guitartabs.cc/tabs/q/queens_of_the_stone_age/if_only_btab_ver_5.html ]
Verse: (Nick has some little fills he does, but i dont bother to copy him EXACTLY, just 
really hard to get them.)
E |---------------------------------------------|
B |-------10-----9---------[10-9-7h9]-----------|
F#|---8-8----8/7--(7)-5-5-5-----3h5-------------|   ()=Optional
C#|-------------------------3h5-----------------|   []=One of the many fills

E |---------------------------------------------|
B |--------3~-3-3-3-3---------------------------|
F#|---5-3~------------2-3-4---------------------|      ~=Let ring

THats about it, fun song to play. When the song ends don't play from the F#|-5---- on.