Queens Of The Stone Age - I Think I Lost My Headache Chords & Tabs

 

I Think I Lost My Headache Chords & Tabs

Queens Of The Stone Age Chords & Tabs

Version: 3 Type: Tab 0 ratings
1 star 2 stars 3 stars 4 stars 5 stars
comments

I Think I Lost My Headache Tab

   
Queens of the Stone Age
"I Think I Lost My Headache"
Rated R (c)

Tabbed by Noach Chancer
nchancer@globalsolutech.com

In Standard Tuning Down 2 Whole Steps
(C-F-Bb-Eb-G-c)
KEY:
/ = slide up
\ = slide down
~ = vibrato
bu = bend up till note reaches note in parentheses
bd = bend down till note reaches note in parentheses

INTRO and MAIN THEME:
[------------------------------------]
[------------------------------------]
[-----8----6--------6----5--------2--]
[---7--------7----5--------7----3----]
[-0------0------0------0------0------]
[------------------------------------]
[------------------------------------]

VERSE:                                               (play this last time)
----------------------------------------------------[----------------------]
----------------------------------------------------[----------------------]
----------------------------------------------------[----------------------]
----------------------------------------------------[----------------------]
-7--7-7--7--7--7--8/10~~~~-7--7-7--7--7--7--8/10~~~~[-7--7-7--7--7--7--8~~~]
-5--5-5--5--5--5--6/8~~~~~-5--5-5--5--5--5--6/8~~~~~[-5--5-5--5--5--5--6~~~]
[ Tab from: http://www.guitartabs.cc/tabs/q/queens_of_the_stone_age/i_think_i_lost_my_headache_tab_ver_3.html ]
(second guitar during VERSE just plays this)
[-9----bu----(12)----bd----(9)----]
[---------------------------------]
[-------(slow-bends)--------------]
[---------------------------------]
[---------------------------------]
[---------------------------------]

(fill break during verse)
[---------------------------------------------------------]
[---------------------------------------------------------]
[---------------------------------------------------------]
[---------------------------------------------------------]
[-12--10--8--7--8--5-(then-straight-back-into-VERSE-part)-]
[-10---8--6--5--6--3--------------------------------------]

CHORUS:
[----------------------------------------------[------------------------]
[-------10-----9------8--------10-----9------8-[-------10-----9------11-]
[-----9----9-----9----7------9----9-----9----7-[-----9----9-----9----10-]
[---7--------7-----7--5----7--------7-----7--5-[---7--------7-----7---8-]
[-0-------------------0--0-------------------0-[-0--------------------0-]

(the OUTRO is the just the main theme played ad nauseum, and eventually
                stop playing the open string notes until it fades into
                the horn section)
Comments