Queens Of The Stone Age - Go With The Flow Chords & Tabs

 

Go With The Flow Chords & Tabs

Queens Of The Stone Age Chords & Tabs

Version: 7 Type: Tab 0 ratings
1 star 2 stars 3 stars 4 stars 5 stars
comments

Go With The Flow Tab

   
-------------------------------------------------------------------------------
	          Go With The Flow - Queens Of The Stone Age
-------------------------------------------------------------------------------

Tabbed by: Paul Smith
Modified by : Zeroisgreatman
Albulm: Songs for the deaf
Tuning: Standard - Right - E Tunning - Low to high: EADGBe

Intro:(Also The Main Riff For The First Guitar)
e|-0-0-0-0-0-0-0-0-0-0-0-0-0-0-0-0--3-3-3-3-3-3-3-3--5-5-5-5-5-5-5-5---------|
B|-9-9-9-9-9-9-9-9-9-9-9-9-9-9-9-9--5-5-5-5-5-5-5-5--7-7-7-7-7-7-7-7---------|
G|-9-9-9-9-9-9-9-9-9-9-9-9-9-9-9-9--5-5-5-5-5-5-5-5--7-7-7-7-7-7-7-7---------|
D|-9-9-9-9-9-9-9-9-9-9-9-9-9-9-9-9--5-5-5-5-5-5-5-5--7-7-7-7-7-7-7-7---------|
A|-7-7-7-7-7-7-7-7-7-7-7-7-7-7-7-7--3-3-3-3-3-3-3-3--5-5-5-5-5-5-5-5---------|
E|-0-0-0-0-0-0-0-0-0-0-0-0-0-0-0-0-------------------------------------------|

Guitar 2 fill:(With some type of trembolo effect)
e|--------------------------------------------------------19~----------------|
B|--19-17-19-17~---12~~---12-13-15-13-12~--19-17-19b21-17--------------------|
G|---------------------------------------------------------------------------|
D|---------------------------------------------------------------------------|
A|---------------------------------------------------------------------------|
E|---------------------------------------------------------------------------|

Verse: "She said I've thrown my self away."
e|-3-3-3-3-3-3--5-5-5-5-5-5--0-0-0-0-0-0-0-0-0-0-0-0-------------------------|
B|-5-5-5-5-5-5--7-7-7-7-7-7--9-9-9-9-9-9-9-9-9-9-9-9-------------------------|
G|-5-5-5-5-5-5--7-7-7-7-7-7--9-9-9-9-9-9-9-9-9-9-9-9-------------------------|
D|-5-5-5-5-5-5--7-7-7-7-7-7--9-9-9-9-9-9-9-9-9-9-9-9-------------------------|
A|-3-3-3-3-3-3--5-5-5-5-5-5--7-7-7-7-7-7-7-7-7-7-7-7-------------------------|
E|---------------------------0-0-0-0-0-0-0-0-0-0-0-0-------------------------|

Guitar 2:
e|---------------------------------------------------------------------------|
B|------------------------------------12~-13-15-13-12~-----------------------|
G|---------------------------------------------------------------------------|
D|---------------------------------------------------------------------------|
A|---------------------------------------------------------------------------|
E|---------------------------------------------------------------------------|

Verse Part 2: "They're just photos after all."
e|-3-3-3-3-3-3--5-5-5-5-5-5--0-0-0-0-0-0-0-0-0-0-0-0-------------------------|
B|-5-5-5-5-5-5--7-7-7-7-7-7--9-9-9-9-9-9-9-9-9-9-9-9-------------------------|
G|-5-5-5-5-5-5--7-7-7-7-7-7--9-9-9-9-9-9-9-9-9-9-9-9-------------------------|
D|-5-5-5-5-5-5--7-7-7-7-7-7--9-9-9-9-9-9-9-9-9-9-9-9-------------------------|
A|-3-3-3-3-3-3--5-5-5-5-5-5--7-7-7-7-7-7-7-7-7-7-7-7-------------------------|
E|---------------------------0-0-0-0-0-0-0-0-0-0-0-0-------------------------|

Guitar 2 fill:
e|---------------------------------------------------------------------------|
B|---------------------------------------------------13-12-10~---------------|
G|---------------------------------------------------------------------------|
D|---------------------------------------------------------------------------|
A|---------------------------------------------------------------------------|
E|---------------------------------------------------------------------------|
[ Tab from: http://www.guitartabs.cc/tabs/q/queens_of_the_stone_age/go_with_the_flow_tab_ver_7.html ]
Verse Part 3: "I can't wash you off my skin"
e|-3-3-3-3-3-3--5-5-5-5-5-5--0-0-0-0-0-0-0-0-0-0-0-0-------------------------|
B|-5-5-5-5-5-5--7-7-7-7-7-7--9-9-9-9-9-9-9-9-9-9-9-9-------------------------|
G|-5-5-5-5-5-5--7-7-7-7-7-7--9-9-9-9-9-9-9-9-9-9-9-9-------------------------|
D|-5-5-5-5-5-5--7-7-7-7-7-7--9-9-9-9-9-9-9-9-9-9-9-9-------------------------|
A|-3-3-3-3-3-3--5-5-5-5-5-5--7-7-7-7-7-7-7-7-7-7-7-7-------------------------|
E|---------------------------0-0-0-0-0-0-0-0-0-0-0-0-------------------------|

Guitar 2 fill:
e|--------------------------------------------------------------------------|
B|--------------------------------------------------------------------------|
G|-----------------------------------------------------------16~~-14~~-9~~--|
D|--------------------------------------------------------------------------|
A|--------------------------------------------------------------------------|
E|--------------------------------------------------------------------------|

Verse Part 4: "I can't make you hang around"
e|-3-3-3-3-3-3--5-5-5-5-5-5--0-0-0-0-0-0-0-0-0-0-0-0-------------------------|
B|-5-5-5-5-5-5--7-7-7-7-7-7--9-9-9-9-9-9-9-9-9-9-9-9-------------------------|
G|-5-5-5-5-5-5--7-7-7-7-7-7--9-9-9-9-9-9-9-9-9-9-9-9-------------------------|
D|-5-5-5-5-5-5--7-7-7-7-7-7--9-9-9-9-9-9-9-9-9-9-9-9-------------------------|
A|-3-3-3-3-3-3--5-5-5-5-5-5--7-7-7-7-7-7-7-7-7-7-7-7-------------------------|
E|---------------------------0-0-0-0-0-0-0-0-0-0-0-0-------------------------|

Guitar 2 fill:
e|---------------------------------------------------------------------------|
B|-------------------------------------------------15b17---------------------|
G|-------------------------------------------------------14b19-12b-----------|
D|-----------------------------------------------------------------14-12-14~-|
A|---------------------------------------------------------------------------|
E|---------------------------------------------------------------------------|

Pre-Chorus:
e|-0-0-0-0-0-0--2-2-2-2-2-2--0-0-0-0-0-0-0-0-0-0-0-0-------------------------|
B|-1-1-1-1-1-1--3-3-3-3-3-3--0-0-0-0-0-0-0-0-0-0-0-0-------------------------|
G|-0-0-0-0-0-0--2-2-2-2-2-2--1-1-1-1-1-1-1-1-1-1-1-1-------------------------|
D|-2-2-2-2-2-2--0-0-0-0-0-0--2-2-2-2-2-2-2-2-2-2-2-2-------------------------|
A|-3-3-3-3-3-3---------------2-2-2-2-2-2-2-2-2-2-2-2-------------------------|
E|---------------------------0-0-0-0-0-0-0-0-0-0-0-0-------------------------|

Chorus: Guitar 1 : "I can go, with the flow"
e|-3-3-3-3-3-3--5-5-5-5-5-5--0-0-0-0-0-0-0-0-0-0-0-0-------------------------|
B|-5-5-5-5-5-5--7-7-7-7-7-7--9-9-9-9-9-9-9-9-9-9-9-9-------------------------|
G|-5-5-5-5-5-5--7-7-7-7-7-7--9-9-9-9-9-9-9-9-9-9-9-9-------------------------|
D|-5-5-5-5-5-5--7-7-7-7-7-7--9-9-9-9-9-9-9-9-9-9-9-9-------------------------|
A|-3-3-3-3-3-3--5-5-5-5-5-5--7-7-7-7-7-7-7-7-7-7-7-7-------------------------|
E|---------------------------0-0-0-0-0-0-0-0-0-0-0-0-------------------------|

Chorus: Guitar 2: 
e|-0-0-0-0-0-0--2-2-2-2-2-2--0-0-0-0-0-0-0-0-0-0-0-0-------------------------|
B|-1-1-1-1-1-1--3-3-3-3-3-3--0-0-0-0-0-0-0-0-0-0-0-0-------------------------|
G|-0-0-0-0-0-0--2-2-2-2-2-2--1-1-1-1-1-1-1-1-1-1-1-1-------------------------|
D|-2-2-2-2-2-2--0-0-0-0-0-0--2-2-2-2-2-2-2-2-2-2-2-2-------------------------|
A|-3-3-3-3-3-3---------------2-2-2-2-2-2-2-2-2-2-2-2-------------------------|
E|---------------------------0-0-0-0-0-0-0-0-0-0-0-0-------------------------|

Outro: Same as intro

End on:
e|-0\-|
B|-9\-|
G|-9\-|
D|-9\-|
A|-7\-|
E|-0\-|

| /  slide up
| \  slide down
| h  hammer-on
| p  pull-off
| ~  vibrato
| +  harmonic
| x  Mute note

===============================================================================
Comments