Queens Of The Stone Age - Go With The Flow Chords & Tabs

 

Go With The Flow Chords & Tabs

Queens Of The Stone Age Chords & Tabs

Version: 4 Type: Tab 1 rating
1 star 2 stars 3 stars 4 stars 5 stars
comments

Go With The Flow Tab

#----------------------------------PLEASE NOTE---------------------------------#
#This file is the author's own work and represents their interpretation of the #
#song. You may only use this file for private study, scholarship, or research. #
#------------------------------------------------------------------------------#

Song-go with the flow
Artist-QOTSA
tabbed by paul paulhutch55@hotmail.com

e------------------------------------------------------|
b------------------------------------------------------|
g--1-1-1-1---------------------------------------------|
d--2-2-2-2---------------------------------------------|
a--2-2-2-2-------x4------------------------------------|
d------------------------------------------------------|
[ Tab from: http://www.guitartabs.cc/tabs/q/queens_of_the_stone_age/go_with_the_flow_tab_ver_4.html ]
then:
e--------12-----15\12-------------------------------------|
a------------------------12-------------------------------|
g----12-------------------------------12-13-15--13---12---|
d---------------------------------------------------------|
a---------------------------------------------------------|
d---------------------------------------------------------|

e--------12----14b-----12------17b------------------------|
b--------------------------------------13\----------------|
g----12---------------------------------------------------|
d---------------------------------------------------------|
a---------------------------------------------------------|
d---------------------------------------------------------|

e---------------------------------------------------------|
b---------------------------------------------------------|
g----------------------2-2-2-2----1-1-1-1-----------------|
d-----5-5-5-5-5-5-5-5--2-2-2-2----2-2-2-2-----------------|
a-----5-5-5-5-5-5-5-5--0-0-0-0----2-2-2-2-------etc-------|
d-----3-3-3-3-3-3-3-3-------------------------------------|


email me if you have any probs!
Comments