Queens Of The Stone Age - Give The Mule What He Wants Chords & Tabs

 

Give The Mule What He Wants Chords & Tabs

Queens Of The Stone Age Chords & Tabs

Version: 1 Type: Tab 0 ratings
1 star 2 stars 3 stars 4 stars 5 stars
comments

Give The Mule What He Wants Tab

I Did this in standard tuning EADGBE

This Is the Intro to the song I thought id put it here since no body else has its almost 
like 90%  Its probably not just 0  0 after the  3/7  but what the hell

[ Tab from: http://www.guitartabs.cc/tabs/q/queens_of_the_stone_age/give_the_mule_what_he_wants_tab.html ]
E|------------------------------------------------------------|
B|------------------------------------------------------------|
G|------------------------------------------------------------|
D|--------------------------------------7p5p0-----------------|
A|----3--3----3/7--10---7---0--0---------------5v-------------|
E|------------------------------------------------------------|


E|---------------------------------------------------|
B|---------------------------------------------------|
G|---------------------------------------------------|
D|---------------------------------------------------|
A|----3--3----3/7-----5----7-----0---0---------------|
E|------------------------------------------5/-------|

That's That
Comments