Queens Of The Stone Age - First It Giveth Chords & Tabs

 

First It Giveth Chords & Tabs

Queens Of The Stone Age Chords & Tabs

Version: 1 Type: Tab 0 ratings
1 star 2 stars 3 stars 4 stars 5 stars
comments

First It Giveth Tab

   
This song was tabbed by Jeff Hubbard. I absolutely love Queens of the
Stone Age. I couldnt find any tabs for this song, so i tabbed it up
myself.

This one is off their Songs for the Deaf album.


Tuning: C F Bb Eb G C
(a second guitar is in E standard tuning)

h = hammer-on
p = pull-off
/ = slide up
x = muted string


first verse

|-----------------------------------------------------------------|
|-----------------------------------------------------------------|
|-----------------------------------------------------------------|
|-----------------------------------------------------------------|
|-5-5-5-5-5-5-5-5-6-6-6-6-6-6-6-6---------------------------------|
|---------------------------------5-5-5-5-5-5-5-5-1-1-1-1-1-1-1-1-|

-----------------------------------------------------------------|
-----------------------------------------------------------------|
-----------------------------------------------------------------|
-----------------------------------------------------------------|
-5-5-5-5-5-5-3h5-6-6-6-6-6-6-5h6-8-8-8-8-8-8-8-8-8-8-8-8-8-8-8-8-|
-----------------------------------------------------------------|

-----------------------------------------------------------------|
-----------------------------------------------------------------|
-----------------------------------------------------------------|
-----------------------------------------------------------------|
-5-5-5-5-5-5-3h5-6-6-6-6-6-6-5h6---------------------------------|
---------------------------------5-5-5-5-5-5-3h5-1-1-1-1-1-1-1-1-|

-----------------------------------------------------------------|
-----------------------------------------------------------------|
-----------------------------------------------------------------|
-----------------------------------------------------------------|
-5-5-5-5-5-5-3h5-6-6-6-6-6-6-5h6-8-8-8-8-8-8-8-8-----------------|
-------------------------------------------------5-5-5-5-5-5-5-5-|

-----------------------------------------------------------------|
-----------------------------------------------------------------|
-----------------------------------------------------------------|
-----------------------------------------------------------------|
-5-5-5-5-5-5-3h5-6-6-6-6-6-6-5h6---------------------------------|
---------------------------------5-5-5-5-5-5-3h5-1-1-1-1-1-1-1-1-|

-----------------------------------------------------------------|
-----------------------------------------------------------------|
-----------------------------------------------------------------|
-----------------------------------------------------------------|
-5-5-5-5-5-5-5-5-6-6-6-6-6-6-6-6---------------------------------|
---------------------------------5-5-5-5-5-5-5-5-5-5-5-5-5-5-5-5-|

second guitar starts playing in E tuning

(guitar 1, C tuning)
|-----------------------------------------------------------------|
|-----------------------------------------------------------------|
|-----------------------------------------------------------------|
|-----------------------------------------------------------------|
|-5-5-5-5-5-5-3h5-6-6-6-6-6-6-5h6---------------------------------|
|---------------------------------5-5-5-5-5-5-3h5-1-1-1-1-1-1-1-1-|

-----------------------------------------------------------------|
-----------------------------------------------------------------|
-----------------------------------------------------------------|
-----------------------------------------------------------------|
-5-5-5-5-5-5-5-5-6-6-6-6-6-6-6-6---------------------------------|
---------------------------------5-5-5-5-5-5-5-5-5-5-5-5-5-5-5-5-|

-----------------------------------------------------------------|
-----------------------------------------------------------------|
-----------------------------------------------------------------|
-------------------------------------------------7-7-7-8-8-8-7-7-|
-5-5-5-5-5-5-3h5-6-6-6-6-6-6-5h6-8-8-8-8-8-8-8-8-----------------|
-----------------------------------------------------------------|

-----------------------------------------------------------------|
-----------------------------------------------------------------|
-----------------------------------------------------------------|
-----------------------------------------------------------------|
-5-5-5-5-5-5-5-5-6-6-6-6-6-6-6-6---------------------------------|
---------------------------------5-5-5-5-5-5-5-5-5-5-5-----------|

(2nd guitar, E tuning)
|-----------------------------------------------------------------|
|-----------------------------------------------------------------|
|-----------------------------------------------------------------|
|-----------------------------------------------------------------|
|-5-5-5-5-5-5-3h5-6-6-6-6-6-6-5h6---------------------------------|
|---------------------------------5-5-5-5-5-5-3h5-1-1-1-1-1-1-1-1-|

-----------------------------------------------------------------|
-----------------------------------------------------------------|
-----------------------------------------------------------------|
-----------------------------------------------------------------|
-5-5-5-5-5-5-5-5-6-6-6-6-6-6-6-6---------------------------------|
---------------------------------5-5-5-5-5-5-5-5-1-1-1-1-1-1-1-1-|

-----------------------------------------------------------------|
-----------------------------------------------------------------|
-----------------------------------------------------------------|
-------------------------------------------------7-7-7-8-8-8-7-7-|
-5-5-5-5-5-5-3h5-6-6-6-6-6-6-5h6-8-8-8-8-8-8-8-8-----------------|
-----------------------------------------------------------------|

-----------------------------------------------------------------|
-----------------------------------------------------------------|
-----------------------------------------------------------------|
-----------------------------------------------------------------|
-5-5-5-5-5-5-5-5-6-6-6-6-6-6-6-6---------------------------------|
---------------------------------5-5-5-5-5-5-5-5-5-5-5-----------|

chorus riff

|-----------------------------------------------------------------|
|-----------------------------------------------------------------|
|-7-7-7-7-7-5-7-7-7-5-7-5-7-5-7-7-7-7-7-7-7-5-7-7-7-5-7-5-7-5-7-7-|
|-7-7-7-7-7-5-7-7-7-5-7-5-7-5-7-7-7-7-7-7-7-5-7-7-7-5-7-5-7-5-7-7-|
|-5-5-5-5-5-5-5-5-5-5-5-5-5-5-5-5-5-5-5-5-5-5-5-5-5-5-5-5-5-5-5-5-|
|-----------------------------------------------------------------|

-----------------------------------------------------------------------------|
-----------------------------------------------------------------------------|
-10-10-10-10-10-8-10-10-10-8-10-8-10-8-10-10---------------------------------|
-10-10-10-10-10-8-10-10-10-8-10-8-10-8-10-10-8-8-8-8-8-8-8-8-5-5-5-5-5-5-5-5-|
-8--8--8--8--8--8-8--8--8--8-8--8-8--8-8--8--8-8-8-8-8-8-8-8-5-5-5-5-5-5-5-5-|
---------------------------------------------6-6-6-6-6-6-6-6-3-3-3-3-3-3-3-3-|

acoustic riff
[ Tab from: http://www.guitartabs.cc/tabs/q/queens_of_the_stone_age/first_it_giveth_tab.html ]
|-----------------------------------------------1-1-1-1---|
|-7-7-7-7-7-5/7-7---8-8-8-8---5-5-5-5-5-5-5-5---1-1-1-1---|
|-7-7-7-7-7-5/7-7---8-8-8-8---6-6-6-6-6-6-6-6---2-2-2-2---|
|-7-7-7-7-7-5/7-7---8-8-8-8---7-7-7-7-7-7-7-7---3-3-3-3---|
|-5-5-5-5-5-3/5-5---6-6-6-6---7-7-7-7-7-7-7-7---3-3-3-3---|
|-----------------------------5-5-5-5-5-5-5-5---1-1-1-1---|

interlude ( I like this part, nice and peaceful:)

|--------------------------------------------------------------------|
|--------------------------------------------------------------------|
|-14---12h14p12------------------------14---12h14p12---12-/18--------|
|------------------14---14h15-12---10--------------------------------|
|--------------------------------------------------------------------|
|--------------------------------------------------------------------|

second verse

(1st guitar only)
|-----------------------------------------------------------------|
|-----------------------------------------------------------------|
|-----------------------------------------------------------------|
|-----------------------------------------------------------------|
|-5-5-5-5-5-5-5-5-6-6-6-6-6-6-6-6---------------------------------|
|---------------------------------5-5-5-5-5-5-5-5-1-1-1-1-1-1-1-1-|

-----------------------------------------------------------------|
-----------------------------------------------------------------|
-----------------------------------------------------------------|
-----------------------------------------------------------------|
-5-5-5-5-5-5-5-5-6-6-6-6-6-6-6-6---------------------------------|
---------------------------------5-5-5-5-5-5-5-5-5-5-5-5-5-5-5-5-|

2nd guitar chimes in
(1st guitar, C tuning)
|-----------------------------------------------------------------|
|-----------------------------------------------------------------|
|-----------------------------------------------------------------|
|-----------------------------------------------------------------|
|-5-5-5-5-5-5-3h5-6-6-6-6-6-6-5h6---------------------------------|
|---------------------------------5-5-5-5-5-5-3h5-1-1-1-1-1-1-1-1-|

-----------------------------------------------------------------|
-----------------------------------------------------------------|
-----------------------------------------------------------------|
-------------------------------------------------7h8p7--7--------|
-5-5-5-5-5-5-3h5-6-6-6-6-6-6-5h6-8-8-8-8-8-8-8-8-----------------|
-----------------------------------------------------------------|

-----------------------------------------------------------------|
-----------------------------------------------------------------|
-----------------------------------------------------------------|
-----------------------------------------------------------------|
-5-5-5-5-5-5-3h5-6-6-6-6-6-6-5h6-8-8-8-8-8-8-8-8-----------------|
-------------------------------------------------5-5-5-5-5-5-5-5-|

-----------------------------------------------------------------|
-----------------------------------------------------------------|
-----------------------------------------------------------------|
-----------------------------------------------------------------|
-5-5-5-5-5-5-5-5-6-6-6-6-6-6-6-6---------------------------------|
---------------------------------5-5-5-5-5-5-5-5-5-5-5-----------|

(2nd guitar, E tuning)
|-----------------------------------------------------------------|
|-----------------------------------------------------------------|
|-----------------------------------------------------------------|
|-----------------------------------------------------------------|
|-5-5-5-5-5-5-3h5-6-6-6-6-6-6-5h6---------------------------------|
|---------------------------------5-5-5-5-5-5-3h5-1-1-1-1-1-1-1-1-|

-----------------------------------------------------------------|
-----------------------------------------------------------------|
-----------------------------------------------------------------|
-------------------------------------------------7h8p7--7--------|
-5-5-5-5-5-5-3h5-6-6-6-6-6-6-5h6-8-8-8-8-8-8-8-8-----------------|
-----------------------------------------------------------------|

-----------------------------------------------------------------|
-----------------------------------------------------------------|
-----------------------------------------------------------------|
-----------------------------------------------------------------|
-5-5-5-5-5-5-3h5-6-6-6-6-6-6-5h6-8-8-8-8-8-8-8-8-----------------|
-------------------------------------------------5-5-5-5-5-5-5-5-|

-----------------------------------------------------------------|
-----------------------------------------------------------------|
-----------------------------------------------------------------|
-----------------------------------------------------------------|
-5-5-5-5-5-5-5-5-6-6-6-6-6-6-6-6-8-8-8-8-8-8-8-8-8-8-8-----------|
-----------------------------------------------------------------|

bridge riff

|---------------------------------------------
|--------------------------------11-11-11-11--
|-7-7-7-7-7-7-7-7-7-7-7-7-7-7-7--11-11-11-11--
|-7-7-7-7-7-7-7-7-7-7-7-7-7-7-7--11-11-11-11--
|-5-5-5-5-5-5-5-5-5-5-5-5-5-5-5---------------
|---------------------------------------------

-------------------------------------------------
-------------------------------------------------
-11-11-11-11-11-11-11-11-11-11-11-11-11-11-11-11-
-11-11-11-11-11-11-11-11-11-11-11-11-11-11-11-11-
-9--9--9--9--9--9--9--9--9--9--9--9--9--9--9--9--
-------------------------------------------------

-|--------------------------------------------------------------------------------|
-|--------------------------------------------------------------------------------|
-|--------------------------------------------------------------------------------|
-|-8-8-8-8-8-8-8-8-8-8-8-8-8-8-8-8-11-11-11-11-11-11-11-11-11-11-11-11-11-11-11-1-|
-|-8-8-8-8-8-8-8-8-8-8-8-8-8-8-8-8-11-11-11-11-11-11-11-11-11-11-11-11-11-11-11-1-|
-|-6-6-6-6-6-6-6-6-6-6-6-6-6-6-6-6-9--9--9--9--9--9--9--9--9--9--9--9--9--9--9--9-|


outro riff

|--------------------------------------------------------------------------------|
|--------------------------------------------------------------------------------|
|--------------------------------------------------------------------------------|
|-8-8-8-8-8-8-8-8-8-8-8-8-8-8-8-8-11-11-11-11-11-11-11-11-11-11-11-11-11-11-11-1-|
|-8-8-8-8-8-8-8-8-8-8-8-8-8-8-8-8-11-11-11-11-11-11-11-11-11-11-11-11-11-11-11-1-|
|-6-6-6-6-6-6-6-6-6-6-6-6-6-6-6-6-9--9--9--9--9--9--9--9--9--9--9--9--9--9--9----|

acoustic outro

|-----------------------------|
|-7-7-7-7-7-5/7-7---8-8-8-8---|
|-7-7-7-7-7-5/7-7---8-8-8-8---|
|-7-7-7-7-7-5/7-7---8-8-8-8---|
|-5-5-5-5-5-3/5-5---6-6-6-6---|
|-----------------------------|

order:

bass intro
first verse
chorus riff x 4
acoustic riff x 2
interlude
second verse
chorus riff x 4
bridge riff x 2
outro riff x 2
acoustic outro


And there ya have it Ladies and Gents!! This is a great song to listen to
if you are a runner. Its really trance-like.
Comments