Queens Of The Stone Age - Feel Good Hit Of The Summer Chords & Tabs

 

Feel Good Hit Of The Summer Chords & Tabs

Queens Of The Stone Age Chords & Tabs

Version: 3 Type: Tab 0 ratings
1 star 2 stars 3 stars 4 stars 5 stars
comments

Feel Good Hit Of The Summer Tab

STANDARD TUNING

E----------------------------------------------------|
B----------------------------------------------------|
G----------------------------------------------------|  (THROUGH-OUT)
D--3-3-3-3-3-3-3-3--3-3-3-3-3-3-3-3--3-3-3-3-3-3-3-3-|
A--1-1-1-1-1-1-1-1--1-1-1-1-1-1-1-1--1-1-1-1-1-1-1-1-|
E----------------------------------------------------|
         nicotine valium vicoden extacy and alcohol

THEN

[ Tab from: http://www.guitartabs.cc/tabs/q/queens_of_the_stone_age/feel_good_hit_of_the_summer_tab_ver_3.html ]
E----------------------------------------------------|
B----------------------------------------------------|
G--------------------------------------------------6-|
D--3-3-3-3-3-3-3-3--3-3-3-3-3-3-3-3--3-3-3-3-3-3-3-6-|
A--1-1-1-1-1-1-1-1--1-1-1-1-1-1-1-1--1-1-1-1-1-1-1-4-|
E----------------------------------------------------|

E-----------------0----------------------------------|
B----------------b4----------------------------------|
G----------------------------------------------------|
D--3-3-3-3-3-3-X-------------------------------------|
A--1-1-1-1-1-1-X-------------------------------------|
E----------------------------------------------------|
   co, co, co, co, co, co, co, caine
Comments