Queens Of The Stone Age - Burn The Witch Chords & Tabs

 

Burn The Witch Chords & Tabs

Queens Of The Stone Age Chords & Tabs

Version: 2 Type: Tab 0 ratings
1 star 2 stars 3 stars 4 stars 5 stars
comments

Burn The Witch Tab

-------------------------------------------------------------------------------
			    burn the witch - queens of the stone age
-------------------------------------------------------------------------------
Tabbed by:nat d
Email:nathan davis_13@hotmail.co.uk

Tuning:standard 
[ Tab from: http://www.guitartabs.cc/tabs/q/queens_of_the_stone_age/burn_the_witch_tab_ver_2.html ]
e|---------------------------------------------------------------------------|
B|---------------------------------------------------------------------------|
G|-----0-----------0---------------------------------------------------------|
D|-4-4---2-0--4-4----2-0-----------------------------------------------------|
A|-4-4--------4-4--------3-0-------------------------------------------------|
E|-2-2--------2-2------------------------------------------------------------|
Comments