Queens Of The Stone Age - Bronze Chords & Tabs

 

Bronze Chords & Tabs

Queens Of The Stone Age Chords & Tabs

Version: 1 Type: Bass Tab 0 ratings
1 star 2 stars 3 stars 4 stars 5 stars
comments

Bronze Bass Tab

artist:queens of the stone age
song:the bronze
tabbed by :Greg carlin
its not a 100% perfect but it will do

Intro
G|------------------------|
D|------------------------|      play intro x4
A|-----b8-----b6--b10-----|
E|-b8-----b6-----------b8-|

after playing the itro 4 times
go straight into verse.

Verse + guitar solo
G|------------------------------|
D|------------------------------|
A|------------------------------|
E|-9--9-9-10--10-9--9--9-9-10-9-|

Interlude
[ Tab from: http://www.guitartabs.cc/tabs/q/queens_of_the_stone_age/bronze_btab.html ]
G|---------------------------------|-------|
D|---------------------------------|-------|
A|---------------------------------|-------|
E|--8--9-9--8--9-9--8--9-9--8--9-9-|-8-9-8-|

Out Chorus

G|---------------------------------------|
D|---------------------------------------|
A|------9-99------6-66------6-66---------|
E|-9-99------9-99------4-44------10-1010-|

Outro

G|---------------------------------------|
D|---------------------------------------|
A|------9-99------6-66------6-66---------|
E|-9-99------9-99------4-44------10-1010-|

G|--------------------------------------------|
D|--------------------------------------------|
A|------9-99------6-66------6-66--------------|
E|-9-99------9-99------4-44------10-1010-9-99-|

enjoy !
Comments