Queens Of The Stone Age - Blood Is Love Chords & Tabs

 

Blood Is Love Chords & Tabs

Queens Of The Stone Age Chords & Tabs

Version: 1 Type: Bass Tab 0 ratings
1 star 2 stars 3 stars 4 stars 5 stars
comments

Blood Is Love Bass Tab

Band- Queens Of The Stone Age
Song- Blood Is Love

 standard tuning

	verse-(pretty much the whole song)
G---------------------------------------------------|
D---------------------------------------------------|
A------10-10--------10-10--------10-10--------10-10-|
Eľ0-0----------0-0----------0-0----------0-0--------|

G----------------------------------------|
D----------------------------------------|
A------9-9-------9-9-------9-9-------9-9-|
Eľ0-0-------0-0-------0-0-------0-0------|

G----------------------------------------|
D----------------------------------------|
A------5-5-------5-5-------5-5-------5-5-|
Eľ0-0-------0-0-------0-0-------0-0------|

G----------------------------------------|
D----------------------------------------|
A------3-3-------2-2-------3-3-------2-2-|
Eľ0-0-------0-0-------0-0-------0-0------|
[ Tab from: http://www.guitartabs.cc/tabs/q/queens_of_the_stone_age/blood_is_love_btab.html ]
G----------------------------------------|
D----------------------------------------|
A------1-1-------1-1-------1-1-------1-1-|
Eľ0-0-------0-0-------0-0-------0-0------|
 	chorus
G----------------------------------------------|
D----------------------------------------------|
A--------10/---------10/--------9/----------9--|
Eľ0-0-0------0-0-0-------0-0-0------0-0-0------|

G--------------------------------------------|
D--------------------------------------------|
A--------5/----------5/---------3/--------3/-|
Eľ0-0-0------0-0-0-------0-0-0------0-0-0----|

G---------------------------------------------|
D---------------------------------------------|
A--------10/--------10/--------9/---------9---|
Eľ0-0-0------0-0-0------0-0-0------0-0-0------|

G---------------------------------------------|
D---------------------------------------------|
A---------5/---------5/----------3/--------3--|
Eľ0-0-0------0-0-0-------0-0-0------0-0-0-----|

G--------------------------------------------------|
D--------------------------------------------------|
A--------5/-----------5/----------5/---------5--10-|
Eľ0-0-0------0-0-0--------0-0-0-------0-0-0--------|
			(Slide last 5 to 10)
Comments