Queens Of The Stone Age - Better Living Through Chemistry Chords & Tabs

 

Better Living Through Chemistry Chords & Tabs

Queens Of The Stone Age Chords & Tabs

Version: 3 Type: Tab 1 rating
1 star 2 stars 3 stars 4 stars 5 stars
comments

Better Living Through Chemistry Tab

Artist: Queens of the Stone Age
Album: Rated R
Track:  5. Better Living Through Chemistry
s= slide

Riff 1
e|----------------------------------------------------
b|----------------------------------------------------
g|----------------------------------------------------
d|-----------------------10-10------10-10---------
a|------7--------7-7---------------------------------
e|--0-----0-0-------------------0-----------0-0----

e|----------------------------------------------------
b|----------------------------------------------------
g|----------------------------------------------------
d—9-9----9-9-----6-6-------6-6-----5-5-----5-5
a|-----------------------------------------------------
e|---------0------0------0-0------------------0------

Riff 2
e|----------------------------------------------------
b|----------------------------------------------------
g|----------------------------------------------------
d|-----------------------10-10------10-10---------
a|------7--------7-7---------------------------------
e|--0-----0-0-------------------0-----------0-0----

[ Tab from: http://www.guitartabs.cc/tabs/q/queens_of_the_stone_age/better_living_through_chemistry_tab_ver_3.html ]
e|----------------------------------------------------
b|----------------------------------------------------
g|----------------------------------------------------   repeat both riffs several times
d—9-9----9-9-----6-6-------6-6-----7-7-----7-7
a|-----------------------------------------------------
e|---------0------0------0-0------------------0------


Riff 3

e|---------------------------------------------------
b|--------------------------------------------------
g|---------------------------------------------------
d|---9s---7-----9s--12------9s---5s---7---------  repeat many times
a|---7s---5-----7s--10------7s---3s---5---------
e|---------------------------------------------------

end riff 3 on
e|----------------------------------------------------
b|---------------------------------------------------
g|---------------------------------------------------
d|--9-------------------------------------------------
a|--7-------------------------------------------------
e|-----------------------------------------------------

Riff 4 (is played very fast    on the A minor pentatonic scale)  
e|-----------------------------------------------------
b|-------------------------------------------------12-
g|-------------------------------------12---14-------
d|--------------------------12---14------------------
a|--------------12----14-----------------------------
e|--12----15-----------------------------------------


Riff 1 is played 	times
Riff 2 is played 	times
Riff 3 is played	 times
Riff 4 is played	 times

For any questions/corrections  email me @   ibanez1990@hotmail.com.
Comments