Queens Of The Stone Age - Avon Chords & Tabs

 

Avon Chords & Tabs

Queens Of The Stone Age Chords & Tabs

Version: 1 Type: Bass Tab 0 ratings
1 star 2 stars 3 stars 4 stars 5 stars
comments

Avon Bass Tab

   
Band- Queens Of The Stone Age
Song- Avon

Tuning - C F Bb Eb

intro:
--------------------|--------------------------------------------------|
----------9---------|--------------10--------------------12------------|
-9---9--------------|---10---10---------------12----12-----------------|
---7---7----7-7-7---|------8----8-----8-8-8------10----10----10-10-10--|

main riff:
-------------------------------------------------------------------|
-------------------------------------------------------------------|
---2-2-2-2-2-2-2-2-3-3-3-3-3-3-3-3-5-5-5-5-5-5-5-5-5-5-5-5-5-3-2---|
-------------------------------------------------------------------|

fill 1:
---/7--5--4-----|
------------7---|
----------------|
----------------|

intro riff 1 10x

intro riff 2 1x

intro riff 3 2x

intro riff 1 1x

intro riff 2 1x

intro riff 3 2x

fill 1 1x
[ Tab from: http://www.guitartabs.cc/tabs/q/queens_of_the_stone_age/avon_btab.html ]
chorus 1:
------------------------------------------------------------------------|
------------------------------------------------------------------------|
-2-2-2-2-1-1-1-1-5-5-5-5----------------7-7-7-7-2-2-2-2-3-3-3-3-5-5-5-5-|
-------------------------4-4-4-4-3-3-3-3--------------------------------|

chorus riff 1 1x

chorus 2:
---------------------------------------------------------------------|
---------------------------------------------------------------------|
---2-2-2-2-1-1-1-1-5-5-5-5-----------------7-7-7-7-2-2-2-2-3-3-3-3---|
---------------------------4-4-4-4-3-3-3-3---------------------------|

--------------------------------------------------|
--------------------------------------------------|
---5-5-5-5---------10-10-10-10-7-7-7-7------------|
-----------4-4-4-4---------------------7-7-7-7-7--|

chorus riff 2 1x

intro riff 1 1x

intro riff 2 1x

intro riff 3 2x

repeat intro riffs until the solo is over

3:05:
intro riff 1 until the end
Comments