Queens Of The Stone Age - Auto Pilot Chords & Tabs

 

Auto Pilot Chords & Tabs

Queens Of The Stone Age Chords & Tabs

Version: 3 Type: Tab 0 ratings
1 star 2 stars 3 stars 4 stars 5 stars
comments

Auto Pilot Tab

Artist:     Queens of the Stone Age
Song:       Auto Pilot (Nick's Acoustic Version)
Tuning:     Standard
Tabbed by:  Ron Van Sexron
Email: 	    GatesofPurgatory@cox.net
Notes:      This may look wrong but this is the way Nick played it, listen to
song for rhythm, the tab may differ in the amount of times something is played,
so listen to the song


Intro/Verse Riff (x6)
|----------7--------------------------------------|
|----------7--------------------------------------|
|----------7--------------------------------------|
|-------------------------------------------------|
|--7h9-9-9---7-7h9-7-7--9--9--7h9--9-7-7-7-7-7-7--|
|--7---7-7---7-7---7-7-10-10-10---10-9-9-9-7-7-7--|

Chorus (x4)
|-----------|
|-----------|
|--7--3--0--|
|--9--5--2--|
|--9--5--2--|
|--7--3--0--|
  "I wanna fly..."
[ Tab from: http://www.guitartabs.cc/tabs/q/queens_of_the_stone_age/auto_pilot_tab_ver_3.html ]
Verse Riff (x6)
|----------7--------------------------------------|
|----------7--------------------------------------|
|----------7--------------------------------------|
|-------------------------------------------------|
|--7h9-9-9---7-7h9-7-7--9--9--7h9--9-7-7-7-7-7-7--|
|--7---7-7---7-7---7-7-10-10-10---10-9-9-9-7-7-7--|
  "When we arrive..."

Chorus (x4)
|-----------|
|-----------|
|--7--3--0--|
|--9--5--2--|
|--9--5--2--|
|--7--3--0--|
  "I wanna fly..."

Bridge (x2) 		
|--0--3--0--0---0--3--0--|
|--1--3--0--0---1--3--0--|
|--0--0--2--1---0--0--2--|
|--2--0--2--2---2--0--2--|
|--3--2--0--2---3--2--0--|
|--0--3--0--0---0--3--0--|
  "ah-ah..."

Verse Riff (x2)
|----------7--------------------------------------|
|----------7--------------------------------------|
|----------7--------------------------------------|
|-------------------------------------------------|
|--7h9-9-9---7-7h9-7-7--9--9--7h9--9-7-7-7-7-7-7--|
|--7---7-7---7-7---7-7-10-10-10---10-9-9-9-7-7-7--|
  "High up in..."

Chorus (x10)
|-----------|
|-----------|
|--7--3--0--|
|--9--5--2--|
|--9--5--2--|
|--7--3--0--|
  "I wanna fly..."
Comments