Queens Of The Stone Age - Another Love Song Chords & Tabs

 

Another Love Song Chords & Tabs

Queens Of The Stone Age Chords & Tabs

Version: 1 Type: Tab 2 ratings
1 star 2 stars 3 stars 4 stars 5 stars
comments

Another Love Song Tab

Band: Queens Of The Stone Age
Song: Another Love Song
Album: Songs For The Deaf
Tabbed By: Steven Fildes
Tuning: Standard - EADGBe


e[------------------------------------------------------------]
B[------------------------------------------------------------]
G[-5-6-8-6-6-8-9-5-5---5-6-8-9-9-9-8-5-5---5-6-8-6-6-8-9-5-5--]
D[------------------------------------------------------------]
A[------------------------------------------------------------]
E[------------------------------------------------------------]

e[---------------------------------------]
B[---------------------------------------]
G[-5-6-8-6-8-9-9-8-9-9/11-11---5-6-8-6---]
D[---------------------------------------]
A[---------------------------------------]
E[---------------------------------------]

e[-4-4-4-4-4-4--4-4-4-4-4-4---------------4-4-4-4-4-4---------]
B[-5-5-5-5-5-5--4-4-4-4-4-4--9-9-9-9-9-9--4-4-4-4-4-4---------]
G[-6-6-6-6-6-6--5-5-5-5-5-5--9-9-9-9-9-9--5-5-5-5-5-5---------]
D[-6-6-6-6-6-6--6-6-6-6-6-6--9-9-9-9-9-9--6-6-6-6-6-6---------]
A[-4-4-4-4-4-4--6-6-6-6-6-6--7-7-7-7-7-7--6-6-6-6-6-6---------]
E[--------------4-4-4-4-4-4---------------4-4-4-4-4-4---------]

e[-4-4-4-4-4-4--4-4-4-4-4-4--4-4-4-4-4-4--4-4-4-4-4-4--]
B[-5-5-5-5-5-5--4-4-4-4-4-4--5-5-5-5-5-5--4-4-4-4-4-4--]
G[-6-6-6-6-6-6--5-5-5-5-5-5--6-6-6-6-6-6--5-5-5-5-5-5--]
D[-6-6-6-6-6-6--6-6-6-6-6-6--6-6-6-6-6-6--6-6-6-6-6-6--]
A[-4-4-4-4-4-4--6-6-6-6-6-6--4-4-4-4-4-4--6-6-6-6-6-6--]
E[--------------4-4-4-4-4-4---------------4-4-4-4-4-4--]

e[--------------------------------]
B[--------------------------------]
G[-4-4-4-4-4-4--5-5-5-5--7-7-7----]
D[-4-4-4-4-4-4--5-5-5-5--7-7-7----]
A[-2-2-2-2-2-2--3-3-3-3--5-5-5----]
E[--------------------------------]
[ Tab from: http://www.guitartabs.cc/tabs/q/queens_of_the_stone_age/another_love_song_tab.html ]
e[-4-4-4-4-4-4-4-4-4-4-4-4-4-4-4-4-----------------]
B[-5-5-5-5-5-5-5-5-5-5-5-5-5-5-5-5-----------------]
G[-6-6-6-6-6-6-6-6-6-6-6-6-6-6-6-6--3-3-3--2-2-2---]
D[-6-6-6-6-6-6-6-6-6-6-6-6-6-6-6-6--3-3-3--2-2-2---]
A[-4-4-4-4-4-4-4-4-4-4-4-4-4-4-4-4--1-1-1--0-0-0---]
E[-------------------------------------------------]

Solo:
e[------------------------------------------------------------------------]
B[------------------------------------------------------------------------]
G[--0h6-0h8-0h9-0h11-0h11/13-13-13p11-11--11-9h11p9-8-9-8----8-9-8-9h11p9-]
D[--------------------------------------------------------11--------------]
A[------------------------------------------------------------------------]
E[------------------------------------------------------------------------]

e[----------------------------------------------------------------------]
B[----------------------------------------------------------------------]
G[-8-8/11---9-8-6-9-8-6-11-8--11-8-11-8---9-8-6-8-9-11-8-11-8-11-11/13--]
D[----------------------------------------------------------------------]
A[----------------------------------------------------------------------]
E[----------------------------------------------------------------------]

e[--12-12-12-12-12-11-9-8-8-8-8-9-11---12-12-12-12-12-11-9-8-8h9p8-8-8h9p8-]
B[-------------------------------------------------------------------------]
G[-------------------------------------------------------------------------]
D[-------------------------------------------------------------------------]
A[-------------------------------------------------------------------------]
E[-------------------------------------------------------------------------]

e[--0h9-0h12-0h11--0h12-0h14-0h12-0h11---0h12-0h11-0h11-0h12-0h12/16-16--]
B[-----------------------------------------------------------------------]
G[-----------------------------------------------------------------------]
D[-----------------------------------------------------------------------]
A[-----------------------------------------------------------------------]
E[-----------------------------------------------------------------------]

All the different parts are there, the song isnt that hard, you'll be
able to work it out.




Comments