Queens Of The Stone Age - 18 Ad Chords & Tabs

 

18 Ad Chords & Tabs

Queens Of The Stone Age Chords & Tabs

Version: 1 Type: Tab 0 ratings
1 star 2 stars 3 stars 4 stars 5 stars
comments

18 Ad Tab

   
Band- Queens Of The Stone Age
Song- 18 A.D.

Riff A :
e-----------------------------------------------|
B-----------------------------------------------|
G-7-7-7-7-7-7-7-7-7-7-7-7-7-7-7-7-7-------------|
D-7-7-7-7-7-7-7-7-7-7-7-7-7-7-7-7-7-3-3-3-3-3---|
A-5-5-5-5-5-5-5-5-5-5-5-5-5-5-5-5-5-3-3-3-3-3---|
E-----------------------------------1-1-1-1-1---|
  * *   *     *   *     *   *     * * * *

Riff B :
e------------------------------------------|
B------------------------------------------|
G--7--7--12\-10/-12--7-7\------------------|
D--7--7--12\-10/-12--7-7\10-10-10-10-10----|
A--5--5--10\-8-/-10--5-5\-8--8--8--8--8----|
E------------------------------------------|
      *               *
[ Tab from: http://www.guitartabs.cc/tabs/q/queens_of_the_stone_age/18_ad_tab.html ]
1:43

e-----------------------------|
B-----------------------------|
G-12b-12p10----10-------------|
D-----------10----12-10h12~---|
A-----------------------------|
E-----------------------------|

e----------------------------|
B----------------------------|
G--------------12-10h12p10~--|
D--10h12 10h12---------------|
A----------------------------|
E----------------------------|

1:55
e--------------------------|
B------------14b-----------|
G------10h12-----14~-------|
D-10h12--------------------|
A--------------------------|
E--------------------------|


e--------------------------|
B--------------------------|
G--------------12~-10~-----|
D--10h12 10h12-------------|
A--------------------------|
E--------------------------|
Comments