Queen - Who Wants To Live Forever Chords & Tabs

 

Who Wants To Live Forever Chords & Tabs

Queen Chords & Tabs

Version: 3 Type: Tab 0 ratings
1 star 2 stars 3 stars 4 stars 5 stars
comments

Who Wants To Live Forever Tab

#----------------------------------PLEASE NOTE---------------------------------#
#This file is the author's own work and represents their interpretation of the #
#song. You may only use this file for private study, scholarship, or research. #
#------------------------------------------------------------------------------#

Song: WHO WANTS TO LIVE FOREVER?
Artist: QUEEN
From: divechaz@hotmail.com.

Part 1
e|---------|-----------|------------------------------|---------------|--------------|
b|---------|-----------|------------------------------|---------------|--------------|
G|-------55|-----------|-----10-10-8-8-6-9-6-7-5-7-5-5|--------------5|----5-5--5-5-7|
D|---5-7---|-10-9-7-5-5|-7-10-------------------------|-5-5-7-7--7-7--|7-7-----------|
A|-7-------|-----------|------------------------------|---------------|--------------|
E|---------|-----------|------------------------------|---------------|--------------|
[ Tab from: http://www.guitartabs.cc/tabs/q/queen/who_wants_to_live_forever_tab_ver_3.html ]
Part 2
e|---------|--------------|---------------------------|
b|---------|--------------|---------------------------|
G|-------33|--------------|---------------------------|
D|---3-5---|--------------|----8-8-6-6-4-7-4-5-3-5-3-3|
A|-5-------|-10-9-77-5-4-5|-5-8-----------------------|
E|---------|--------------|---------------------------|

Part 3
e|--------------|---------------|-------------|
b|--------------|---------------|-------------|
G|-------------5|----5-5--5-5--7|---5-10-5-5-7|
D|5-5-7-7--7-7--|7-7------------|7-7----------|
A|--------------|---------------|-------------|
E|--------------|---------------|-------------|

Important note:
Ok, This is the very first tab I've ever written, so STOP LAUGHING! ;) 
I love this song by QUEEN, and since most Queen tabs I find seem to 
only contain Brian May's guitar solos, I felt I should share this 
little melody since I (sort of) figured out the tune on my acoustic
 guitar. For all I know it might be in a wrong key altogether...
..hell, I hardly know anything about proper guitar theory!! This is 
just for fun, and I hope it sounds semi-decent! 
E-mail me your comments at divechaz@hotmail.com. Once again I 
apologise to any Queen fans who feel that I've butchered one of the 
most beautiful songs by Queen! Take care!
Comments