Queen - We Will Rock You Correct Chords & Tabs

 

We Will Rock You Correct Chords & Tabs

Queen Chords & Tabs

Version: 1 Type: Tab 2 ratings
1 star 2 stars 3 stars 4 stars 5 stars
comments

We Will Rock You Correct Tab

                              We Will Rock You
                               Artist: Queen  
                       Album: News of the World (1977)
                        Words and Music by Brian May

Outro/Guitar Solo (1:20)
                                        Beginning of Solo
Guitar 1, Heavy Distortion              (1:30)
E|---------|--------|--------|--------|------------------------------------|
B|---------|--------|--------|--------|------------------------------------|
G|--9~~~~~~|~~~~~~~~|~~~~~~~~|~~~~~~~~|--5~--------------------------(5)\--|
D|---------|--------|--------|--------|--5~--------------------------(5)\--|
A|-Fade-In-|-Slowly Increasing Volume-|--3~--------------------------(3)\--|
E|---------|--------|--------|--------|------------------------------------|
    Hold note until......................Rock You!                  Alright.
 
E|-----------------------------------|-------------------------------------|
B|--------------------------------14-|-14-14-14h15-15---15-14~----------14-|
G|--2----2-----X-X-X-X--2--2----2-14-|-14-14-14----14---14-14~----------14-|
D|--2----2-----X-X-X-X--2--2----2-14-|-14-14-14h16-16---16-14~----------14-|
A|--0----0-----X-X-X-X--0--0----0--0-|--0--0--0-------0---------------0----|
E|-----3sb-------------------3sb-----|-------------------------------------|


E|--------------------------------17p15---|-14-----------------------------|
B|-14h15-15p14-15p14-15---14-14-----------|------17----15p14-15--p14-------|
G|-14-----14---14----14---14-----------14-|---14----14-14----14------16-14-|
D|-14h16-16p14-16p14-15---14--------------|------------16p14-16---------14-|
A|--0-----0-----0---------------0---------|-------------0-----0----------0-|
E|----------------------------------------|--------------------------------|

[ Tab from: http://www.guitartabs.cc/tabs/q/queen/we_will_rock_you_correct_tab.html ]
E|-----------------------14---------------------|--------------------------|
B|-----17----17p14----17fb--17p14------------14-|--15p14-15p14-14-14~----X-|
G|-----14-14-14-------------------16fb-16p14-14-|--14----14-14-14-14~----X-|
D|--14-------------14--------------*---------14-|--16p14-16p14-14-14~----X-|
A|------------------0-------------------------0-|---0-----0--0--0--------X-|
E|----------------------------------------------|--------------------------|
    *Grace Note Bend: Fret 16 is played, then quickly bent up to 18

E|----------------------------.---.-----|----------------------------------|
B|-14--15p14-15p14-----------15--14--X\-|----------------------------------|
G|-14--14----14----14--------14--14--X\-|------REPEAT-PREVIOUS-MEASURE-----|
D|-14--16p14-16p14-14-14-14--16--14--X\-|----------------------------------|
A|--0---------------0--0--0---0---0--X\-|----------------------------------|
E|--------------------------------------|----------------------------------|
                                                        Notes
                                            ~=Sustained with Slight Vibrato
E|----------------------------.---.------|  h=Hammer-On     p=Pull-Off
B|-14--15p14-15p14----14-----15--14----E-|  \=Slide Down    .=Staccato       
G|-14--14----14----14-14-----14--14----N-|  sb=Slight Bend (1/2 Fret)
D|-14--16p14-16p14-14-14-14--16--14----D-|  fb=Full Bend (2 Frets)
A|--0------------------0--0---0---0----!-|  X=Muted Note        X\=String Noise
E|---------------------------------------|  ()=Previously Played Notes
     





Intro - Two Stomps (8th Notes), One Clap (Quarter Note); Repeat Eight Times
Comments:

“We Will Rock You” has one of the greatest guitar solos of all time!
Brian May is a guitar genius, and this very accurate tab is dedicated to him.
Enjoy!

Tabbed By: Pizza Cow of ID (Dillon H.)
Comments