Queen - Was It All Worth It Chords & Tabs

 

Was It All Worth It Chords & Tabs

Queen Chords & Tabs

Version: 1 Type: Tab 0 ratings
1 star 2 stars 3 stars 4 stars 5 stars
comments

Was It All Worth It Tab

Was it all worth it
Queen 
Miracle

|--------5-----8p5-----5h8p5-------------trem--------------|
|----------8p5-----8p5---------5---------0\\---------------|
|-8b10-----------------------8---8-7-5v--0\\---7---5p4-5---|
|----------------------------------------------------------|
|----------------------------------------------------------|
|----------------------------------------------------------|

|---------------------------12------------------------------|
|-15b17__r15p13-15----13-15----15-13-12-13----________------|
|------------------------------------------14-12h14p12-14v--|
|-----------------------------------------------------------|
|-----------------------------------------------------------|
|-----------------------------------------------------------|
[ Tab from: http://www.guitartabs.cc/tabs/q/queen/was_it_all_worth_it_tab.html ]
|------------------/17-|
|-5--------------------|
|---8-5-7-5--------/17-|
|-----------7-5-7------|
|----------------------|
|----------------------|

|-------13--------------1417p14------------15-------|
|-----13--16b18-------15-------15--------15--18b20--|
|---14--------------14-----------14----16-----------|
|-15--------------16---------------1617-------------|
|---------------------------------------------------|
|---------------------------------------------------|
        _________ 
|-------16--19p16---------------19b21----19b21---19vv---|
|-----17--17-----17--------17-(20)----------------------|
|---16-------------16----18-----------------------------|
|-18-----------------1819----19-------------------------|
|-------------------------------------------------------|
|-------------------------------------------------------|

Comments