Queen - Under Pressure Chords & Tabs

 

Under Pressure Chords & Tabs

Queen Chords & Tabs

Version: 1 Type: Tab 4 ratings
1 star 2 stars 3 stars 4 stars 5 stars
comments

Under Pressure Tab

   
#----------------------------------PLEASE NOTE---------------------------------#
#This file is the author's own work and represents their interpretation of the #
#song. You may only use this file for private study, scholarship, or research. #
#------------------------------------------------------------------------------##

QUEEN: UNDER PRESSURE

Words and music by Queen and David Bowie (Roger 
Taylor actually)

Transcribed by Gonzalo Plaza (gplaza@gloria.cnt.cl) 



INTRO BASS:

G-----------------------        If you play it with guitar              
D--12-12-12-12-12-12----        just pick the open D and A string
A--------------------12-        
E-----------------------

Guitar:
[ Tab from: http://www.guitartabs.cc/tabs/q/queen/under_pressure_tab.html ]
  D      A/D    G/D    A/D      D
E----5------5------3------0----2-----
B---7-7----5-5----3-3----2----3------
G--7---7--6---6--4---4--2----2-------
D-0------0------0------0----0--------
A------------------------------------
E------------------------------------       Use this pattern one time.

VOICE
    D     A/D       G/D    A/D      D
E-----5-------5-------3-------0------2- Just pick the      
B---7-7-----5-5-----3-3------2------3-- string of the 
G--7--7----6--6----4--4-----2-----2---- chord down and
D-0---0---0---0---0---0----0-----0----- when you have to
A-------------------------------------- pick the first string 
E-------------------------------------- you pick the entire chord.
Comments