Queen - Tie Your Mother Down Chords & Tabs

 

Tie Your Mother Down Chords & Tabs

Queen Chords & Tabs

Version: 4 Type: Tab 0 ratings
1 star 2 stars 3 stars 4 stars 5 stars
comments

Tie Your Mother Down Tab

Transcribed by P.D. 
|-----------------------------------------------------------|
|-5b----------------------------------------------8b10--8v--|
|-5b--------------7--5b6r5--------------7--6-b6r5-----------|
|-------7--7----5-------------7--7----5---------------------|
|-----------------------------------------------------------|
|-----------------------------------------------------------|

|---------------------------------------------------------------------|
|-5-------------------------------------------------------------------|
|---8-7-5--7p5--------------------------------------------------------|
|--------------7p5----------------------------------------------------|
|------------------7-6-5-3p0h3vvvp0-5p3p0h3v---5p3p0h3v---5p3p0h3v----|
|---------------------------------------------------------------------|

|--------------------------------------------------------|
|--------------------------------------------------------|
|-----------------------------------------------5--------|
|---------------------------------------5---5-7----------|
|-5p0-0-5p0-3p0-5p0-3p0-5p0-3p0-5p0-5-7---7--------7vv---|
|--------------------------------------------------------|
[ Tab from: http://www.guitartabs.cc/tabs/q/queen/tie_your_mother_down_tab_ver_4.html ]
|-------------------------------------------------------------------------------------|
|---------------------------------------------------------12b14_r12b13_rp10-12----10--|
|-(0)----------------------------11b13__r11p9-11--9----9------------------------------|
|-(0)-5--0-7--5b------------9-9---------------------11--------------------------------|
|----------------7vv-\5/11------------------------------------------------------------|
|-------------------------------------------------------------------------------------|

slide on
|-----------------------------------------14-------17-------17\15-----------------------------------------|
|-----14---14-14_\-------14-14---14-14-------16/17-------17---------17_\15---15\13---13/14----------------|
|-----14---14-14_\-------14-14---14---------------------------------------------------------14---14\12----|
|-/14-14---14-14_\5/14---14-14---14--------------------------------------------------------------------12-|
|---------------------------------------------------------------------------------------------------------|
|---------------------------------------------------------------------------------------------------------|

|------------------------------------------------14-------------------------------------------|
|-13/14---14-14---14---------------14---14-14\10/--\12/_14\-12---14-12/_14-12/14------14\-----|
|-13/14---14-14---14---------------14---14--------------14-------14-12/_14-12/14------14\-----|
|-13/14---14-14---14-14\2---2/14---14---14-----------------------------------------14---\-----|
|---------------------------------------------------------------------------------------------|
|------------------------------------------------------------------------------------------0--|
Comments