Queen - Tie Your Mother Down Chords & Tabs

 

Tie Your Mother Down Chords & Tabs

Queen Chords & Tabs

Version: 1 Type: Bass Tab 0 ratings
1 star 2 stars 3 stars 4 stars 5 stars
comments

Tie Your Mother Down Bass Tab

Queen
Tie your mother down
Bass played by John Deacon
Transcribed by Rick Millo, vlyfirearm@aol.com
Email me with any questions.


Opening
|-----------------------|
|--------5-4------------|
|-0-0-0-------3-2-------|
|-----------------5-----|

Verse							3x
|----------------------------------------------------------|
|.-----------------------------------------5-4------------.|
|.---------------------------------------------3-2--------.|
|--5--34545-34545-34545-34545-34545-34545-----------5------|


Bridge
|----------------------------------------------------------|
|----------------------------------------------------------|
|-7----10----------------------------------------3-4-------|
|-----------34545-34545-34545-34545-34545----5-7-----------|

Chorus
|------------------------|
|----------5-4-----------|
|--5---5-------3-2-------|
|----5-------------5-----|

Verse							2x
|----------------------------------------------------------|
|.-5-4--------------------------------------------5-4-----.|
|.----3-2---------------------------------------------3-2-.|
|---------5--34545-34545-34545-34545-34545-34545---------5-|

Bridge
|----------------------------------------------------------|
|---6-7-9----6-7-9----6-7-9--------------------------------|
|-7--------7--------7--------7-10-------------3-4----------|
|----------------------------------53454--5-7--------------|

Chorus 2nd time
|------------------------------------|
|---------4-5-7----4-5-7---5-4-------|
|--5-----5--------5------------3-2---|
|----5----------------------------5--|
[ Tab from: http://www.guitartabs.cc/tabs/q/queen/tie_your_mother_down_btab.html ]
Guitar solo 						2x
|---------------------------------------------------------|
|.-5-4-------------------------------------------5-4-----.|
|.----3-2--------------------------------------------3-2-.|
|--------5--34545-34545-34545-34545-34545-34545---------5-|

more solo
|----------------------------------|
|---6-7-9--------------------------|
|-7--------7-5-4----7-5-4----7-10--|
|----------------7--------7--------|

more solo					2x
|------------------------------------------------|
|.-------------------------------------5-4------.|
|.-----------------------------------------3-2--.|
|--34545-34545-34545-34545-34545-34545---------5-|


out of solo break
|-----------------------------------------------|
|-----------------------------------------------|
|--7--10--12/-12-12/-14-14-14-14------3-4-------|
|---------------------------------5-7-----------|

brief chorus       
|--------------------------------------------------|
|---4-5-7----4-5-7-----444-555-777---4-5-7---4-5-7-|
|-5--------5--------555------------5-------5-------|
|--------------------------------------------------|

end of chorus
|-----------|
|-5-4-------|
|-----3-2---|
|---------5-|

ending guitar solo					3x
|----------------------------------------------------------|
|.-5-4--------------------------------------------5-4-----.|
|.----3-2---------------------------------------------3-2-.|
|---------5--34545-34545-34545-34545-34545-34545---------5-|

on third time above, replace the 54325 with this
|----------------------------------------------------------
|-5-4------------------------------------------------------
|-----3-2-55555555555555555--------------------------------
|---------------------------5555555555555555555555---------

last note chokes the A

Comments