Queen - These Are The Days Chords & Tabs

 

These Are The Days Chords & Tabs

Queen Chords & Tabs

Version: 1 Type: Tab 0 ratings
1 star 2 stars 3 stars 4 stars 5 stars
comments

These Are The Days Tab

Queen: These are the days...

guitar solo
|------------------------------------------|
|-----------________-----------------------|
|--b14V-----14r12p10-9---7--7/9---10--9v---|
|------------------------------------------|
|------------------------------------------|
|------------------------------------------|

|--------------------------------------------------------------------------------|
|--------------------------------------------------------------------------------|
|-10h12----10--9----10--7-----9--7---7--9--10r9-7-9p7\5----14p12-14b15r10----12--|
|--------------------------------------------------------------------------------|
|--------------------------------------------------------------------------------|
|--------------------------------------------------------------------------------|

|----12b13v---13r12p10----10------------------------------------------|
|-10-------------------13----13p10----10------------------------------|
|----------------------------------12----12p10\9-10p9-----------------|
|-----------------------------------------------------12p10-12/14___\-|
|---------------------------------------------------------------------|
|---------------------------------------------------------------------|
[ Tab from: http://www.guitartabs.cc/tabs/q/queen/these_are_the_days_tab.html ]
|----14b15v---15r14p12----12--------------------------------------|
|-12-------------------15----15p12----12----------------------15--|
|----------------------------------14----14p12\11-12p11-----------|
|-------------------------------------------------------14p12-----|
|-----------------------------------------------------------------|
|-----------------------------------------------------------------|

|------------------------------------------------------------------------------------|
|-15/17-15\13---12__\10\8-10/12----------------------------17r15brbrp13-12-13___/20--|
|--------------------------------<12-12-12-12-12-12-12-12>---------------------------|
|------------------------------------------------------------------------------------|
|------------------------------------------------------------------------------------|
|------------------------------------------------------------------------------------|

|--------------------------------------------|--------------20--19--17---------------------------------|
|-20b22----20--18--17------------------------|-20b22___rp18------------20-18-17------------------------|
|---------------------19--17--16-17-19-------|----------------------------------19-17-16-17-19----17---|
|--------------------------------------17----|-------------------------------------------------17------|
|--------------------------------------------|---------------------------------------------------------|
|--------------------------------------------|---------------------------------------------------------|

|--------------------------------------------------------------------------|
|-16b17--------------------------------------------------------------------|
|--------17-15-------------------------------------------------------------|
|--------------17-16-15-13b------------------------------10--12b13r-12p10--|
|---------------------------15-13--------------------12--------------------|
|---------------------------------15-14-12b13___\--------------------------|
Comments