Queen - The Night Comes Down Chords & Tabs

 

The Night Comes Down Chords & Tabs

Queen Chords & Tabs

Version: 2 Type: Tab 0 ratings
1 star 2 stars 3 stars 4 stars 5 stars
comments

The Night Comes Down Tab

   
                       Queen: The night comes down
                               1973/Queen I

|---|-------------------------------------------------------------------------|
|---|-------------------------------------------------------------------------|
|-9-|-------------------------------------------------------------------------|
|-9-|-------------------10-9-7----7------------------------10-9-7----7--------|
|-7-|---7-9-10-7-9----7--------10---9-10-7---7-9-10-7----7--------10---9-10-7-|
|-0-|-0------------10----------------------0----------10----------------------|

|-----------------------------------------------------------------------------|
|-----------------------------------------------------------------------------|
|------------------------------------------------------9----9-11-9-11-12-11-12|
|-----------------7------7-9----7-9-10-7-9-10-12-10-12---12-------------------|
|---7-9-10-7-9-10---9-10-----10-----------------------------------------------|
|-0---------------------------------------------------------------------------|

|-------------------------------------------------------------|
|----------12-------------------------------------------------|
|-14-12-14----14-12-------------------------------------------|
|-------------------14p12---12-14-14p12-----------------------|
|------------------------14------------14-12-10-12p10---10-12-|
|----------------------------------------------------12-------|

|----------|--------------|----|------------------------0---|
|----------|--------------|----|------------------------0---|
|----------|--------------|-0/-|------------------------0---|
|----------|--------------|-/0-|------------------------2---|
|-10-------|-10b-12----10-|----|-10b-12-7-5-------------2---|
|----12-12-|--------12----| 5X |------------7-6-5-3-0---0---|
                                                             -3-
|----0---0-----0---0-------0-----0-|---0-----0-----0-0--------0------0-|
|------7---7-----7-----8-7---8-7---|-----7-----7-----7---8-7---8---7---|
|-7----------7---------------------|-7-----7-----7-----------7---------|
|----------------------------------|-----------------------------------|
|----------------------------------|-----------------------------------|
|----------------------------------|-----------------------------------|

|------0--------0--------0---0---0---|-----0-------0-------0-----0-----|
|----7---8----7---8----7---8---7---8-|---8---8---7---8---7---8-----8-7-|
|------------------------------------|---------------------------------|
|-10-------10-------10---------------|-9-------9-------9-------9-------|
|------------------------------------|---------------------------------|
|------------------------------------|---------------------------------|

|------0--------0--------0---------0---|-0------------------------7-7---|
|----7---8----7---8----7---8-----7---8-|-7------------------------7-7---|
|--------------------------------------|-9------------------------7-7---|
|-10-------10-------10--------10-------|-10-----------------------9-9---|
|--------------------------------------|-0------------------------9-9---|
|--------------------------------------|--------------------------7-7---|

|left guitar
|-------------------------------|
|-5-------5--------7--6----5----|
|-------------7-----------------|
|-------------------------------|
|-------------------------------|
|-------------------------------|
|right guitar
|--------------------------------9----------------|
|-(12)b14-------14r12--10----12-----12b14--rb14---|
|-------------------------------------------------|
|-------------------------------------------------|
|-------------------------------------------------|
|-------------------------------------------------|
|midle guitar
|-------------------------------|
|-------------------------------|
|-7-------5---4----7--6----7----|
|-------------------------------|
|-------------------------------|
|-------------------------------|
|acoustic guitar
| Am D C# |---------------------|riff A
|         |-x-2---x-3----5---5--|
|         |-x-2---x-2----6---6--|
|         |-x-2---x(4)---5---5--|
|         |---------------------|
|         |---------------------|

acoustic guitar                   When I was..
|-5---5---5---5---5---5---5---5---5---5---5---5---3---3---2---2--|
|-7---7---7---7---7---7---7---7---7---7---7---7---3---3---3---3--|
|-6---6---6---6---6---6---6---6---6---6---5---5---4---4---2---2--|
|----------------------------------------------------------------|
|----------------------------------------------------------------|
|----------------------------------------------------------------|

|-3---3---0---0-0-0---3-3-----2---2h3---3---3/5-5---7---7---|
|-3---3---1---1-1-1---0-0-----3---------2---3-7-7---8---8p7-|
|-0---0---0---0-0-0---0-0-2---2---2h4-------4/6-6---7---7---|
|-0---0---0h2-2-2-2---0-0-0---------------------------------|
|-2---2---3---3-3-3-----------------------------------------|
|-3---3---3---3-3-3-----------------------------------------|

|-5---5---5---5---3---3--|
|-7---7---7---7---3---3--|
|-6---6---5---5---4---4--|
|------------------------|
|------------------------|
|------------------------|

riff A

|-5---5---5---5---3---3---0---0--|
|-7---7---7---7---3---3---3---3--|
|-6---6---5---5---4---4---3---3--|
|--------------------------------|
|--------------------------------|
|--------------------------------|

D Dmaj7 D7 G 
G A D G D (C# B) fill 1
F#m G D Dmaj7 D7 
G A D G D (C# B) fill 2
F# G F# Em
[ Tab from: http://www.guitartabs.cc/tabs/q/queen/the_night_comes_down_tab_ver_2.html ]
fill 1:
|left guitar
|----------------------|
|----------------------|
|----------------------|
|-7--------------------|
|-----9---\4----5---5..|
|----------------------|
|right guitar
|---------------------------------------------|
|---------------------------------------------|
|---------------------------------------------|
|-fade in--16r14-12--\7----9---9---7---7---7--|
|---------------------------------------------|
|---------------------------------------------|
|midle guitar
|----------------------|
|----------------------|
|----------------------|
|----------------------|
|----------------------|
|-fade in 10-9-7---\2..|

fill 2:
|left guitar
|-----------------------------------|
|-----------------------------------|
|-----------------------------------|
|-----------------------------------|
|fade in-12--\9---\4-----5---4---2--|
|-----------------------------------|
|right guitar
|------------------------|
|------------------------|
|------------------------|
|-16r14-12-\7---9--7--5--|
|------------------------|
|------------------------|
|midle guitar
|-------------------------|
|-------------------------|
|-------------------------|
|-------------------------|
|-------------------------|
|-10--\7--\2-----3--2--0--|

acoustic guitar
|-5---5---5---5---3---3---2---2--|
|-7---7---7---7---3---3---3---3--|
|-6---6---5---5---4---4---2---2--|
|--------------------------------|
|--------------------------------|
|--------------------------------|

G C 

|--------------------------------|riff B
|---------3---3------------------|
|-2---2h4-2---0------------------|
|-----------------4-2-0---0-2-0--|
|--------------------------------|
|--------------------------------|

|-5---5---5---5---3---3--|
|-7---7---7---7---3---3--|
|-6---6---5---5---4---4--|
|------------------------|
|------------------------|
|------------------------|

Bm Am D C# 

|-----------------------------|
|-x-/7---x-3---2h3-2---2---4--|
|-x------x--------------------|
|-x-/7---x-4---2h4-2---2---3--|
|-----------------------------|
|-----------------------------|

|-5---5---5---5---3---3---0---0--|
|-7---7---7---7---3---3---3---3--|
|-6---6---5---5---4---4---3---3--|
|-----------------------------3--|
|--------------------------------|
|--------------------------------|

riff B

G A D G D (C# B) fill 3
F#m G D Dmaj7 D7
G A D G D (C# B) fill 4
A Bm A G ? G ?
D (x x 9 7 x 10)

fill 3:
|left guitar
|--------------------|
|--------------------|
|--------------------|
|--------------------|
|-5---9--\4---5---5..|
|--------------------|
|right guitar
|-----------------------------------------|
|-----------------------------------------|
|-----------------------------------------|
|-fade in-16r14-12--\7-----9---9---7---7..|
|-----------------------------------------|
|-----------------------------------------|
|midle guitar
|------------------------------------|
|------------------------------------|
|------------------------------------|
|-6-6-8---8------10-8\5---5---6---6..|
|------------10----------------------|
|------------------------------------|

fill 4:
|left guitar
|----------------------------|
|----------------------------|
|----------------------------|
|-7--------------------------|
|-----9---\4-----5---4---2---|
|----------------------------|
|right guitar
|-----------------------------|
|-----------------------------|
|-----------------------------|
|-16r14-12--\7-----9---7---5--|
|-----------------------------|
|-----------------------------|

acoustic guitar
|-----------------------------------------------------------------------------|
|-----------------------------------------------------------------------------|
|-----------------------------------------------------------------------------|
|----------------------10-9-7----7--------------------------10-9-7----7-------|
..7-7-7-9-10-7-9----7--------10---9-10-7---7-9-10-7-9----7--------10---9-10-7-|
|----------------10----------------------0------------10----------------------|

|---------------------------------------------------------------------------|
|---------------------------------------------------------------------------|
|---------------------------------------------------------------------------|
|-------------------10-9-7----7------------------------7------7-9----7-9-10-|
|---7-9-10-7-9----7--------10---9-10-7---7-9-10-7-9-10---9-10-----10--------|
|-0------------10----------------------0------------------------------------|

|-----------------------------------------------------------------------|
|-----------------------------------------------------------------------|
|-----------------------------------------------------------------------|
|-12-9-10-12-9-10-12-10-12-9-10-9-9-10-12-9-12-/14-12-14-12-14-12-14-12-|
|-----------------------------------------------------------------------|
|-----------------------------------------------------------------------|
   
|-----------------------------------------------------------------------|
|-----------------------------------------------------------------------|
|-11h12h14p11h12p11-----------------------------------------------------|
|------------------14-h14p12--------------------------------------------|
|---------------------------14-12-10---12p10---10----7p5--5-------------|
|-------------------------------------------12----12----7---7-7-5-3-0---|

|---0-----0-------0-------------0-|---0-----0-----0---0-----0-----0-|
|-----7-----7---7-----8-7---8-7---|-----7-----7-----7---8-7---8-7---|
|-7-----7-----7-----------7-------|-7-----7-----7-------------------|
|---------------------------------|---------------------------------|
|---------------------------------|---------------------------------|
|---------------------------------|---------------------------------|

|-------------0--------0--------0-----|---0-------0-------0-------0-----|
|----8-7-8------8-7------8-7------8-7-|-----8-7-----8-7-----8-7-----8-7-|
|-------------------------------------|---------------------------------|
|-10-------10-------10-------10-------|-9-------9-------9-------9-------|
|-------------------------------------|---------------------------------|
|-------------------------------------|---------------------------------|

|----------0------0----0-----|
|------------8---------------|
|----------------------------|
|----...10-----10---10---10..|
|----------------------------|
|----------------------------|

Am Em
Comments