Queen - Thank God Its Christmas Chords & Tabs

 

Thank God Its Christmas Chords & Tabs

Queen Chords & Tabs

Version: 1 Type: Bass Tab 0 ratings
1 star 2 stars 3 stars 4 stars 5 stars
comments

Thank God Its Christmas Bass Tab

/ Slide up
\ Slide down
x Placeholder to keep the beat (nothing special played)


QUEEN - THANK GOD IT'S CHRISTMAS BASS TABS
by sporealanw

At some places it is hard to visualize the tab and the beat played. Therefore you should 
maybe listen to some parts of the song closely to figure out how to play the beat 
there. I did my best finding out the tabs as exact as possible. Enjoy playing!


  Verse 1
G|--------|-------|----------|----------|--------|-------|-------|
D|--------|-------|----------|----7-----|--------|-------|-------|
A|--------|-------|----------|-----7----|--------|-------|-------|
E|-3-----8\3-----8\3--8\3--12\5--x--5-5-|-3-----8\3-----8\3--8\3-|


G|----|-----2---2--|-----------------|---------------|-------5--4|
D|----|----2-2-2-2-|--------------5--|---------------|-----------|
A|----|---0---0----|-------------5---|-555-555-555-10\5/-10\-----|
E|-/12\5-----------|-333-333-337---7-|---------------|-----------|


G|--------------54-|-2xx-------------|-----------------|---------|
D|-----------------|-----------------|-----------------|-111-111-|
A|-333-333-333-3---|-----xx0-000-002-|-333-333-333-333-|---------|
E|-----------------|-----------------|-----------------|---------|

                Verse 2
G|-----QUICK!-|----------------|----------------|----------------|
D|-111-11/6\--|----------------|----------------|----------------|
A|------------|----------------|----------------|----------------|
E|------------|-333-333-333-8\-|-333-333-333-8\-|-333-8\--333-12\|


G|----------------|----------------|----------------|------------|
D|------7---------|----------------|----------------|------------|
A|-----7-7--------|----------------|----------------|------------|
E|-555-----5xx-5\-|-333-333-333-8\-|-333-333-333-8\-|-333-8\-333-|


G|----|-----------------|-----------------|----------------|
D|----|-----------------|-----------0-32--|----------------|
A|----|-----------------|----------2----2-|-555-555-555-10\|
E|-12\|-555-555-555-555\|-333-333-3-------|----------------|


G|--------5--4-|-----------------|-----------------|-------------|
D|-------------|-----------------|-----------------|-------------|
A|-5/-10\------|-333-333-333-332-|-000-000-000-000-|-333-333-333-|
E|-------------|-----------------|-----------------|-------------|


G|-----|-----------------|-----------------|-----------------|
D|-----|-111-111-111-111-|-----------------|-----------------|
A|-333-|-----------------|--------------23-|-555-555-555-555-|
E|-----|-----------------|-333-333-333-3---|-----------------|

                     CHORUS (Thank...)
G|-----------------|-----------------|---------------------|-----|
D|-----------------|-----------------|---------------------|-----|
A|-----------------|-----------------|---------------------|-----|
E|-000-000-000-000-|-000-000-000-000-|-000-000-000-000-000-|-000-|


G|-------------|-----------------|-----------------|---------|
D|-------------|-----------------|-----------------|---------|
A|-------------|-----------------|-----------------|---------|
E|-000-000-000-|-000-000-000-000-|-000-000-000-000-|-000-000-|

[ Tab from: http://www.guitartabs.cc/tabs/q/queen/thank_god_its_christmas_btab.html ]
   Verse 3
G|---------------|------------------|--------|-------|-----------|
D|---------------|------------------|--------|-------|-----------|
A|--Ten!---------|------------------|--------|-------|-----------|
E|-101010-101010\|-555-555-555-5/10\|-3-----8\3-----8\3/-8\3/-12\|


G|---------2-----2-|--------|-------|------19+17 in triplet-----2|
D|-------2--2---2--|--------|-------|------of the low G--------2-|
A|-----xx----0-0---|--------|-------|------19-17-17\|-0xx-xx0-0--|
E|-5xx-------------|-3-----8\3-----8\3--8\3---------|------------|


G|-2---|-----------------|----------------|---------5--4-|-----|
D|--2--|-----------------|----------------|--------------|-----|
A|---0-|-----------------|-555-555-555/10\|-555/10\------|-333-|
E|-----|-333-333-333-333-|----------------|--------------|-----|


                                           Thank
                                              God
                                                 Its
G|-------------|-----------------|---------Watch beat-----|-----|
D|-------------|-----------------|---------of singer------|-111-|
A|-333-333-332-|-000-000-000-000-|-333-333-3--3--3--------|-----|
E|-------------|-----------------|------------------------|-----|

                 Fooor      ...    One          ...
G|-------------|-----------------|-----------------|
D|-111-111-111-|-----------------|-000-000-000-000-|
A|-------------|---------------2-|-----------------|
E|-------------|-333-333-333-33--|-----------------|


   Daay                            Thank
                                      God
                                         Itís
G|-----------------------|-----------------|-----------------|
D|-Ten!------------------|-----------------|-----------------|
A|-101010-101010\333/555-|---------2--0--2-|-333-333-333-3---|
E|-----------------------|-333-333---------|--------------02-|

G|---------------------|-----------------|-----------------|
D|--------------beat---|-----------------|----------same!--|
A|------------see above|-333-333-333-3---|---------2--0----|
E|-333-333-333-3--3--3-|--------------02-|-333-333-------3-|


                                                        Foooor  ...
G|------not twenty|-----------------|-----------------|----------|
D|---------2--0-20|-----------------|---------20--20--|----------|
A|-333-333--------|---------2--0----|-333-333---3---3-|----------|
E|----------------|-333-333-------3-|-----------------|-333-333--|

              One...            Daaaaay...
G|not twenty|-----------------|-----------------|----------------|
D|----------|---------20--2---|-----------------|----------------|
A|-2--0-20--|-333-333---3-----|--------------02-|-333-333-333-3--|
E|----------|--------------02-|-333-333-333-3---|--------------02|


G|-----------------|-----------------|-----------------|---------|
D|----------same---|---------20--20--|-----------------|---------|
A|---------2--0----|-333-333---3---3-|---------20--20--|---------|
E|-333-333-------3-|-----------------|-333-333---3---3-|-333-333-|


G|---------|-----------------|-Just any fade-out...--------------|
D|-20--2---|-----------------|-example:--2-0-----0---------------|
A|---3-----|--------------02-|-333-333--------3----3--0----------|
E|------02-|-333-333-333-3---|----------------------------3~~----|
Comments