Queen - Stone Cold Crazy Chords & Tabs

 

Stone Cold Crazy Chords & Tabs

Queen Chords & Tabs

Version: 2 Type: Bass Tab 0 ratings
1 star 2 stars 3 stars 4 stars 5 stars
comments

Stone Cold Crazy Bass Tab

   
artist: Queen 
song: Stone Cold Crazy 
album: Sheer Heart Attack 
never released as a single 

Main riff (a): 
g-----------------/------------------------------------- 
d-----------------/------------------------------------- 
a------------1----/----------1-3-4-3--1-3-4-5----------- 
e----1h333333-----/----1h333---------------------------- 

after freddie yells "Gotta get away from ya stone cold claws" play (b): 
g--------------------------------------------------------- 
d--------------------------------------------------------- 
a-1h333333333333------------------------------------------ 
e--------------------------------------------------------- 
[ Tab from: http://www.guitartabs.cc/tabs/q/queen/stone_cold_crazy_btab_ver_2.html ]
riff 2 in second verse(c): 
g---1-2-3-4-444444444-2------------------/4--2-------------- 
d-----------------------4----------------/------4--2-------- 
a-------------------------22222222222222-/------------5----- 
e----------------------------------------/------------------ 

guitar solo part (d): 
g------------------------4--2----------------------------- 
d------------------------------4--2----------------------- 
a--1----2-222222222222222------------5-------------------- 
e--------------------------------------------------------- 

the layout 
(a) 4x 
(b) 1x 
(a) 2x 
(c) 1x 
(a) 2x 
(b) 1x 
(d) 3x 
(a) 2x 

play moderately fast. tabbed by jose 
Comments