Queen - Somebody To Love Chords & Tabs

 

Somebody To Love Chords & Tabs

Queen Chords & Tabs

Version: 3 Type: Tab 0 ratings
1 star 2 stars 3 stars 4 stars 5 stars
comments

Somebody To Love Tab

Song: Somebody To Love
Band: Queen
Album: A Day At The Races

There's just the solo in this song. Right after the solo it goes into the chorus.

Guitar Solo 2:01
Moderatly Slow = 73bpm

E--------------------------------------------------------------11----------|
B-11b-----rb-----11b--------11h9-----------------9----11b----------11br-h9-|
G--------------------------------10----------8-----------------------------|
D--------------------------------------------------------------------------|
A--------------------------------------------------------------------------|
E--------------------------------------------------------------------------|

E-----------------------------8-------8-------------------------------------|
B-11-----------------9---11b-----11b-----11b--11b----11br-h9--------11br-h9-|
G-----8-------8/(10)-----------------------------------------10-------------|
D---------------------------------------------------------------------------|
A---------------------------------------------------------------------------|
E---------------------------------------------------------------------------|
[ Tab from: http://www.guitartabs.cc/tabs/q/queen/somebody_to_love_tab_ver_3.html ]
E----------------------------------------------------------------------|
B-11-----11b------------------------16b-----16---14---13-14--br--13-15-|
G---------------10b-------8------X-------------------------------------|
D----------------------------------------------------------------------|
A----------------------------------------------------------------------|
E----------------------------------------------------------------------|

E------------------15--16--18--------0--------------------------------------|
B-16--br--15-16-18------------------------------------------------11-10-9-8-|
G---------------------------------------------8--10-10br-h8--10h8-----------|
D------------------------------------------8--------------------------------|
A---------------------------------------------------------------------------|
E---------------------------------------------------------------------------|

E-------------------------------------------------------|--|
B-------------------------------------------------------|--|
G-10br--8---------8---8-------10------10h9p8------------|--| As you play this
D---------10----------------------10----------6--8--6h8-|6-| note, the chorus
A-------------------------------------------------------|--| starts. (2:22)
E-------------------------------------------------------|--|

This was a hard song to tab out. This is how I play it, and I got it from a
offical Queen tab book. The notes are all right, but timing on bends and basically the 
thing is kind of crap. So, sorry but you're going to have to work it out for yourself.

Want more Queen tabs? E-Mail me at: masterofpuppets471@hotmail.co.uk

Please Rate. Probably only worth 4 stars at most because of shit timing. Cheers
Comments