Queen - Sail Away Sweet Sister Chords & Tabs

 

Sail Away Sweet Sister Chords & Tabs

Queen Chords & Tabs

Version: 2 Type: Tab 0 ratings
1 star 2 stars 3 stars 4 stars 5 stars
comments

Sail Away Sweet Sister Tab

#----------------------------------PLEASE NOTE---------------------------------#
#This file is the author's own work and represents their interpretation of the #
#song. You may only use this file for private study, scholarship, or research. #
#------------------------------------------------------------------------------#


                        QUEEN: SAIL AWAY SWEET SISTER                  THE GAME
                                                                      Brian May
                                                                           1979
piano plays something like this:
|-7---7---7---7---7---7---7---7---7---7---7---7---7---7---5---5---7---7----|
|-7---7---7---7---7---7---7---7---7---7---7---7---7---7---7---7---8---8----|
|-7---7---7---7---7---7---7---7---7---7---7---7---7---7---6---6---7---7----|
|---9---9---9---9---9---9---9---9---9---9---9---9---9---9---4---4---9---9--|
|--------------------------------------------------------------------------|
|--------------------------------------------------------------------------|


|----------------------7-------|
|-10-9-----3---2-------7-------|
|--9-9-----4---4-------7-------|
|-11-9-----5---4-----9---9-...-|
|------------------------------|
|-0--0-------------7-----------|

clean guitar:
|-------------------------2---------------|
|-------------------------2---------------|
|-4---4---4---4---4---4---2-----4---4..---|
|-------------------------4---------------|
|-----------------------------------------|
|-----------------------------------------|


overdriven guitar:
(two guitars arr. for one.)
|---------------------2-----------------------------------2-----------|
|---------3---2---3---3---------3-------3---------5-------3---3-3--3--|
|---------4---2---2---2----------2------4----------4-42---2---4-4--44-|
|---------4---4---0---0---4-4-----4-----5-5-6-6-----6-0-------5-5---5-|
|---------2---0-----------5-5-------5-------7-7-------0-------0-0-----|
|-3---2-------------------2-2-------3-------4-4-----------------------|


|-----------------------2--------------------------------2---2-2---|
|-----2---23323-2-------3--------3-------3-----------3---3---3-3---|
|-2---2---22222-2-----2-2-2-------2-2----4-------4---2---2-2-4-4---|
|-2---2---24424-2---0---0---4-4----4-----5---6-6-6---0-------5-5---|
|-0---0---00000-0-----------5-5------5---5---7-7-----0-------------|
|---------------------------2-2------3-------4-4-------------------|

                           clean guitar
|-------------------------------------------------2---------|
|-----2---3-------3-------------------------------2---------|
|-2---2---2-------4-------4---4---4---4---4---4---2--.....--|
|-2---2---0---4---4-------------------------------4---------|
|-0---0-------4---2-----------------------------------------|
|-------------2---------------------------------------------|

clean guitar
|----------------------------2-----------------------|
|----------------------------2-----------------------|
|----4---4---4---4---4---4---2------4--4-.....-------|
|----------------------------4-----------------------|
|----------------------------------------------------|
|----------------------------------------------------|

acoustic guitar solo:
|----9-10p9-----9--10p9-10--10vv---10p9-----9--10--12vv-|
|-12--------12--------------------------12--------------|
|-------------------------------------------------------|
|-------------------------------------------------------|
|-------------------------------------------------------|
|-------------------------------------------------------|

                                     ____ 
|-12r10--9---------------------12b14_rbrp10-9-----------|-10-12-9-10----|
|-----------12--10p9-10p9----------------------10--12---|------------12-|
|-------------------------9vv---------------------------|---------------|
|-------------------------------------------------------|---------------|
|-------------------------------------------------------|---------------|
|-------------------------------------------------------|---------------|


|-----------------2---2-------------------------------2---2--2---|
|-----------------3---3-------3-------3---------------3---3--3---|
|---------4---2---2---2-------22------4-4-----4---2---2---4--4---|
|-5---4---4---4---0---0---4-4-4-4-5---5---6-6-6-6-2---2---5--5---|
|-5---4---2---4-----------5-5-5---5-------7-7-----0--------------|
|-3---2-------------------2-2-----3-------4-4--------------------|


|-----------------2---2---------------------------|
|-2---2---223232233---3-------3-------------------|
|-2---2---222222222---2--------2--------------4---|
|-2---2---224242240---0---------4-5---55256-6-6---|
|-0---0---00000000--------5-5----55-------7-7-----|
|-------------------------2-2-----3-------4-4-----|


|-----2---3-2-----------2-|
|-----3---3-3---2---2---3-|
|-2---2---4-4---2---2--22-|
|-2---2---5-5---2---2---0-|
|-0-------------0---------|
|-------------------------|
[ Tab from: http://www.guitartabs.cc/tabs/q/queen/sail_away_sweet_sister_tab_ver_2.html ]
piano:
|-----------------5---5---7---7---7---7---9---9---10---10---10---10----|
|-7---7---8---8---7---7---8---8---9---9--10--11---12---12---10---10----|
|-7---7---7---7-------------7---7---9---9---9---11---11---11---11---11-|
|---7---7---7---7---7---7----------------------------------------------|
|----------------------------------------------------------------------|
|----------------------------------------------------------------------|

            >solo
|--------------2-------------------------------2---3-3----|
|----------3---33------3-----------------------3---3-3----|
|----------2---2-2------2------4-------4---2---2---4-4----|
|----------0---0--44-4---4-5---5---6-6-6---2---0---5-5----|
|----------0-------5-5-----5---5---7-7-----0---0---0-0----|
|-4\1--1-----------2-2-----3---3---4-4--------------------|


|------------------|
|-2---2---23333-2--|
|-2---2---22222-2--|
|-2---2---24444-2--|
|-0---0---00000-0--|
|------------------|


|-----2-------------------------------2-2-3-2-----------------------------|
|-3---3--------------3----------------3-3-3-3-----2---2-------------------|
|-2---2-------2------4-------4--------2-2-4-4-----2---2--x2-------4---2---|
|-0---0---4-4-4---5--5---6-6---6--2---2-2-5-5-----2---2--x0---4---4---2---|
|---------5-5-----5--5---7-7------0---0-0---------0---0-------4---2---0---|
|---------2-2-----3------4-4----------------------------------2-----------|


|-2---2-------2-----------------------2---2-2-----------------------|
|-3---3--------3------3--------------h3---3-3------2---2---233-3232-|
|-2---2---------2-----4-------4---2---2---4-4------2---2---222-2222-|
|-0---0---4-4-----5---5---6-6-6-6-2---2---5-5------2---2---244-4242-|
|---------5-5-----5---5---7-7-----0---0---0-0------0---0---000-0000-|
|---------2-2-----3-------4-4---------------------------------------|

|-2---2-------------------------------2---2-2--------------------------------|
|-3---3---------------3-----------2---3---3-3------2---2---------------------|
|-2---2-------2-------4-------4---2---2---4-4------2---2---4---4---4---4-...-|
|-0---0---4-4-4---5---5---6-6-6---2---2---5-5------2---2---------------------|
|---------5-5-----5-------7-7---7-0---0------------0---0---------------------|
|---------2-2-----3-------4-4------------------------------------------------|

solo:

middle
|---------------------------------------------------------------------------|
|---------------------------------------------------------------------------|
|---------------b11vvvr9p7-9---7---7-----7vvv-------------------------------|
|-7----7-9---7---------------9---------9------------------------------------|
|----9-----9----------------------------------------------------------------|
|---------------------------------------------------------------------------|

middle
|---------------------------------------------------------------------------|
|--------10b12--10---8--7---------------------------------------------------|
|---------------------------9-7----9b11-b11-b11-b11-9-----------------------|
|-9-8-7-------------------------7-------------------------------------------|
|-------------------------------------------------------9-7-5---------------|
|---------------------------------------------------------------------------|


|left
|------------------------------------7---------------7--7-------------------|
|--------------------7/8---------------10-8-7-8--10-------------------------|
|---------7--------------------7--------------------------------------------|
|-----7/9----------------9--------------------------------------------------|
|---------------------------------------------------------------------------|
|---------------------------------------------------------------------------|
|right
|---------------------------------------------------------------------------|
|---------------------------------------------------------------------------|
|--------------------6/7-------------7---7-----6---7--7--7------------------|
|-----7---------------------6--6---6-------9-7--------------7--7------------|
|-7/9-------------------------------------------------------------5---------|
|---------------------------------------------------------------------------|
|middle
|---------------------------------------------------------------------------|
|----------------10-10/12---------------------9-----------------------------|
|-----------7/11-----------9b11r9-7---7---7-7----------------11r9---11r9767-|
|-----------------------------------9---9---------7-7-7/9--------10---------|
|---------------------------------------------------------10----------------|
|---------------------------------------------------------------------------|



|left
|-------------------|
|-7--7--10--10------|
|-------------------|
|-------------------|
|-------------------|
|-------------------|
|
|right
|-------------------|
|b14-15-17-19---19\-|
|---------------19\-|
|-------------------|
|-------------------|
|-------------------|
|
|middle
|-------------------|
|----------7--------|
|-6--7--9-----------|
|-------------------|
|-------------------|
|-------------------|
transcribed by Pinter Denes
Comments