Queen - One Vision Chords & Tabs

 

One Vision Chords & Tabs

Queen Chords & Tabs

Version: 2 Type: Tab 2 ratings
1 star 2 stars 3 stars 4 stars 5 stars
comments

One Vision Tab

   
Song: One vision
Artist: Queen


Gtr I (E A D G B E) - 'Brian May - Lead / Rhythm w/dist'
Gtr II (E A D G B E) - 'Brian May - Lead w/dist'

Intro - after 12 bar synths
  
 4/4
  Gtr I

|-----------------|---------------|--------------|------------------||
|-----------------|--------x------|-------x------|------------------||
|-7\------6--7-|-7\-----x-4--5-|-5-----x-4--5-|-5----6-(6)-7---6-||
|-7\---------7--7-|-7\-----x-5--5-|-5-----x-5--5-|-5----7-(7)-7---7-||
|-5\---------4--5-|-5\-------2--3-|-3-------2--3-|-3----4-(4)-5---4-||
|-----------------|---------------|--------------|------------------||


 Verse 1
                                  ~               ~
 
|---------------|---------------|---------------|------------------|
|---------------|---------------|---------------|---------------0--|
|--------x------|--------x------|---------------|---------------0--|
|-7\-----x-7--7-|-7\-----x-5--5-|-5----4-5----5-|-5----7-(7)-7-----|
|-5\-------4--5-|-5\-------2--3-|-3----2-2----3-|-3----4-(4)-5-----|
|---------------|---------------|---------------|------------------|


                                  ~
  
|---------------|---------------|---------------|------------------|
|---------------|---------------|---------------|------------------|
|--------x------|--------x------|---------------|------------------|
|-7\-----x-7--7-|-7\-----x-5--5-|-5----4-5----5-|-5----7-(7)-7--7--|
|-5\-------4--5-|-5\-------2--3-|-3----2-2----3-|-3----4-(4)-5--5--|
|---------------|---------------|---------------|------------------|


  
|---------------|---------------|---------------|------------------||
|---------------|---------------|---------------|------------------||
|--------x------|--------x------|---------------|------------------||
|-7\-----x-7--7-|-7\-----x-5--5-|-5----4-5----5-|-5----7-(7)-7--2--||
|-5\-------4--5-|-5\-------2--3-|-3----2-2----3-|-3----4-(4)-5--0--||
|---------------|---------------|---------------|------------------||


 Chorus
  
|---------------|----------------|---------------|-----------------|
|---------------|----------------|---------------|-----------------|
|-2-------(2)-2-|-(2)------(2)---|-2-------(2)-2-|-(2)------(2)-5--|
|-2-------(2)-4-|-(4)------(4)-2-|-2-------(2)-4-|-(4)------(4)-5--|
|-0-------(0)-0-|-(0)------(0)-0-|-0-------(0)-0-|-(0)------(0)-3--|
|---------------|----------------|---------------|-----------------|


             ~
 
|--------------|-------------------|
|--------------|-------------------|
|-(5)------5-3-|-(3)-2--0-(0)------|
|-(5)----------|--------------3----|
|-(3)----------|-----------------5-|
|--------------|-------------------|


                     ~       ~~~~~    ~
 
|----------------------|--------------------||
|----------------------|--------------------||
|----------------------|--------------------||
|----------------------|--------------------||
|-(5)-3b3.5-3-5-3------|-----------------4--||
|--------------------5-|-(5)-6--7-(7)-8-----||


 Verse 2
 
|---------------|---------------|------------------|-----------------|
|---------------|---------------|------------------|---6----6-5------|
|--------x------|--------x------|------------------|---5----5-5------|
|-7\-----x-7--7-|-7\-----x-5--5-|-5--(5)Sx-x-x-x-x-|-2-7----7-5---7--|
|-5\-------4--5-|-5\-------2--3-|-3--(3)Sx-x-x-x-x-|-0----------0-5--|
|---------------|---------------|------------------|-----------------|


  
|-----------------|---------------|---------------|------------------||
|-----------------|---------------|---------------|------------------||
|----------x------|--------x------|---------------|------------------||
|-(7)\-----x-7--7-|-7\-----x-5--5-|-5----5-5----5-|-5----7-(7)-7-----||
|-(5)\-------4--5-|-5\-------2--3-|-3----2-2----3-|-3----4-(4)-5-----||
|-----------------|---------------|---------------|------------------||


 Chorus
 
|----------|------------|------------0-0-|-0-------(0)---|
|----------|------------|------------3-3-|-3-------(3)---|
|-2--------|-(2)--------|-(2)------2-2-2-|-2-------(2)-5-|
|-2--------|-(2)--------|-(2)------2-4-4-|-4-------(4)-5-|
|-0--------|-(0)--------|-(0)------0-0-0-|-0-------(0)-3-|
|----------|------------|----------------|---------------|


        /    /    /     \0.5___/   \0.5___/   \0.5___/   \0.5___/
  
|---------------------|------------------------------------------------|
|---------------------|------------------------------------------------|
|-(5)--(5)--(5)--(5)--|------------------------------------------------|
|-(5)--(5)--(5)--(5)--|------------------------------------------------|
|-(3)--(3)--(3)--(3)--|-3-----(3)-(3)----(3)-(3)----(3)-(3)----(3)-(3)-|
|---------------------|------------------------------------------------|


                                            ~~~~~    ~
  
|-------------------------------------|-------------------||
|-------------------------------------|-------------------||
|-------------------------------------|-------------------||
|-------------------------------------|-------------------||
|-2b3==(2)r(2)b3==(2)r-2b3==(2)r(2)---|-----------------4-||
|-----------------------------------5-|-(5)-6--7-(7)-8----||


 Bridge

|-------------|----------|----------|------|
|-------------|----------|----------|------|
|-7\----------|----------|----------|------|
|-7\----------|----------|----------|------|
|-5\----------|----------|----------|------|
|-------------|----------|----------|------|


|----------|------------|------------|------------|--------||
|----------|------------|------------|------------|--------||
|-7--------|-(7)--------|-(7)--------|-(7)--------|--------||
|-7--------|-(7)--------|-(7)--------|-(7)--------|--------||
|-5--------|-(5)--------|-(5)--------|-(5)--------|--------||
|----------|------------|------------|------------|--------||


 Guitar Solo
  Gtr I
                          ~~~~~

|----------------------------------|
|-------[13]b15==([13])-(13)r----0-|
|--------------------------------0-|
|----------------------------------|
|----------------------------------|
|----------------------------------|
|
| Gtr I
| 
|----------------------------------|
|----------------------------------|
|-------------------------x--------|
|-7\----------------------x---7--7-|
|-5\--------------------------4--5-|
|----------------------------------|


  
|-------------------------------------------------------|
|----[17]b19==([17])-(17)r(17)p15-[17]b19==([17])r------|
|-------------------------------------------------------|
|-------------------------------------------------------|
|-------------------------------------------------------|
|-------------------------------------------------------|
|
| 
|-------------------------------------------------------|
|-------------------------------------------------------|
|---------------------------------------------x---------|
|-7\------------------------------------------x----5--5-|
|-5\-----------------------------------------------2--3-|
|-------------------------------------------------------|

[ Tab from: http://www.guitartabs.cc/tabs/q/queen/one_vision_tab_ver_2.html ]
  
              |-------6--------| |------6------|  |------6------| |------6------|
  
|---------------------------------------------------------------------------------|
|-13p12b13==(12)r-13p11-13p10-13p9-13p8-------------------------------------------|
|---------------------------------------12p11-12p10-12p8--------------------------|
|--------------------------------------------------------13p10-13p8---------------|
|-------------------------------------------------------------------13p10-13p8-13p|
|---------------------------------------------------------------------------------|
|
|       
|---------------------------------------------------------------------------------|
|---------------------------------------------------------------------------------|
|---------------------------------------------------------------------------------|
|-------------5--------------------------4--------5------------------------5------|
|-------------3--------------------------2--------2------------------------3------|
|---------------------------------------------------------------------------------|


         \7_______/
  
|--------------------------||
|--------------------------||
|--------------------------||
|--------------------------||
|-6b6.5-(6)--0---(0)-------||
|--------------------------||
|
| 
|--------------------------||
|--------------------------||
|--------------------------||
|-5------------7-(7)-7-----||
|-3------------4-(4)-5-----||
|--------------------------||


 Verse 3
  Gtr I
  
|---------------|---------------|----------------|----------------|
|---------------|---------------|---8-8S6-6------|----------------|
|--------x------|--------x------|---7-7S5-5------|----------------|
|-7\-----x-7--7-|-7\-----x-5--5-|-5--------------|----------------|
|-5\-------4--5-|-5\-------2--3-|-3------------5-|-(5)-3-3--x/----|
|---------------|---------------|--------------3-|-(3)-1-1--x/----|


  
|---------------|---------------|---------------|-----------------||
|---------------|---------------|---------------|-----------------||
|--------x------|--------x------|------4--------|-------------2-2-||
|-7\-----x-7--7-|-7\-----x-5--5-|-5----5----5---|-------------2-2-||
|-5\-------4--5-|-5\-------2--3-|-3----5----3---|---5---------0-0-||
|---------------|---------------|------3--------|---3-------------||


 Chorus
  
|---------------|----------------|----------------|-----------------|
|-------------3-|-(3)------(3)---|--------------3-|-(3)------(3)----|
|-2-------(2)-2-|-(2)------(2)-2-|-(2)------(2)-2-|-(2)------(2)-2--|
|-2-------(2)-4-|-(4)------(4)-2-|-(2)------(2)-4-|-(4)------(4)-2--|
|-0-------(0)-0-|-(0)------(0)-0-|-(0)------(0)-0-|-(0)------(0)-0--|
|---------------|----------------|----------------|-----------------|


 
|------------|-----------------|-----------------|
|------------|-----------------|-----------------|
|-(2)--------|-2-------(2)-----|-----------------|
|-(2)--------|-4-------(4)-5-5-|-5-4---2---0---2-|
|-(0)--------|-0-------(0)-0---|-0-0-0-0-0-0-0-0-|
|------------|-----------------|-----------------|


  
|-----------------|--------------|------||
|-----------------|-7------------|------||
|-----------------|-7------------|------||
|---0-------------|-7------------|------||
|-0-0-5-5-5-5-5-5-|-5------------|------||
|-----3-3-3-3-3-3-|--------------|------||


 Breakdown
            \7
   ~~~
        |-3-|
   
|-------------------|----------|------|
|-------------------|----------|------|
|-[2]--(2)-(2)------|----------|------|
|-------------------|----------|------|
|-------------------|----------|------|
|-------------------|----------|------|


 
|------8----|----------|------|
|------6----|----------|------|
|------5----|----------|------|
|------0----|----------|------|
|-----------|----------|------|
|-----------|----------|------|


                          ~~~
                                            |3|
 
|----------|--------------------|---------------|
|----------|--------------------|---------------|
|----------|-6b7===(6)r--[6]----|-----------9-8-|
|----------|--------------------|---------------|
|----------|--------------------|---------------|
|----------|--------------------|---------------|


                /
  |3| |3|   |3|             |--3---|
 
|------------------------------------|
|------------------------------------|
|-7p6-8---6-x-x-7-(7)--(7)-----------|
|-------7-------7-(7)--(7)-10b10.5-7-|
|------------------------------------|
|------------------------------------|


     |--3---|    |--3---|    |--3---|    |--3---|
 
|-------------------------------------------------|
|-------------------------------------------------|
|-7-----------7-----------7-----------7-----------|
|---10b10.5p7---10b10.5p7---10b10.5p7---10b10.5p7-|
|-------------------------------------------------|
|-------------------------------------------------|


          |-------3------|    |------3-------|         |-3-|         |-3-|         |-3-|         |-3-|
  
|-------------10-------------10-------------10------------10------------10------------10------------10-|
|-13b15=(13)r----13b15=(13)r----13b15=(13)r----13b15=(13)----13b15=(13)----13b15=(13)----13b15=(13)----|
|------------------------------------------------------------------------------------------------------|
|------------------------------------------------------------------------------------------------------|
|------------------------------------------------------------------------------------------------------|
|------------------------------------------------------------------------------------------------------|


           |-3-|          |-3-|          |-3-|          |-3-|          |-3-|          |-3-|          |-3-|          |-3-|
  
|-------------10-------------10-------------10-------------10-------------10-------------10-------------10-------------10-||
|-13b15==(13)----13b15==(13)----13b15==(13)----13b15==(13)----13b15==(13)----13b15==(13)----13b15==(13)----13b15==(13)----||
|-------------------------------------------------------------------------------------------------------------------------||
|-------------------------------------------------------------------------------------------------------------------------||
|-------------------------------------------------------------------------------------------------------------------------||
|-------------------------------------------------------------------------------------------------------------------------||


 Out-Chorus
           ~~~

|--------------|----------------|----------|--------|
|--------------|-------3-(3)----|----------|--------|
|-2-------(2)--|-(2)---2-(2)----|-2--------|-(2)----|
|-2-------(2)--|-(2)---4-(4)----|-2--------|-(2)----|
|-0-------(0)--|-(0)---0-(0)----|-0--------|-(0)----|
|--------------|----------------|----------|--------|


                                              ~        ~       ~
  
|---------------|----------------|--------------|-----------------|
|-------------6-|-(6)------(6)-5-|-(5)------5---|-----------------|
|-5-------(5)-5-|-(5)------(5)-5-|-(5)------5---|-----------------|
|-5-------(5)-7-|-(7)------(7)-5-|-(5)------5---|-----------------|
|-3-------(3)---|--------------3-|-(3)------3---|-----------------|
|---------------|----------------|------------5-|-5----6-(6)---7--|


        ~                        ~
  
|-----------------|-------------------|-------------*|
|-----------------|-------------------|-------------*|
|-----------------|-------------------|-7\----------*|
|-----------------|-------------------|-7\----------*|
|-----------------|-----------------7-|-5\----------*|
|-(7)---8-(8)---5-|-(5)-6--7-(7)-8----|-------------*|

any comments, prsrule@hotmail.com


Comments