Queen - Ogre Battle Chords & Tabs

 

Ogre Battle Chords & Tabs

Queen Chords & Tabs

Version: 2 Type: Tab 0 ratings
1 star 2 stars 3 stars 4 stars 5 stars
comments

Ogre Battle Tab

Queen: Ogre Battle
Album: Queen II

played backwards
|---------------------------------------------------|
|---------------------------------------------------|
|---2---2---2---2-----------------------------------|
|---2---2---2---2---2-3-5-5-0-2-3-3-----------------|
|-*-0---0---0---0-------------------2-3-5-5-0-2-3-3-|
|---------------------------------------------------|

|---------|----|---------|----|---------------------------------|----|-----|
|---------|----|---------|----|---------------------------------|----|-----|
|---------|-0/-|---------|-0/-|---------------------------------|-0/-|-----|
|---------|-/0-|---------|-/0-|-----2-----2-2---2-2---2-2---2-2-|-/0-|-----|
|---------|----|---------|----|-----0-----0-0---0-0---0-0---0-0-|----|-----|
|-0-3-5-5-| 3X |-0-2-3-3-| 3X |-0-------3-----3-----3-----3-----|----|-0---|


backwars off
|---------------------------------|----|---------|----|---------|----|
|---------------------------------|----|---------|----|---------|----|
|---------------------------------|-0/-|---------|-0/-|---------|-0/-|
|-2-2---2-2---2-2---2-2---2-------|-/0-|---------|-/0-|---------|-/0-|
|-0-0---0-0---0-0---0-0---0-------|----|---------|----|---------|----|
|-----3-----3-----3-----3-----0---|----|-3-3-2-0-| 3X |-5-5-3-0-| 3X |

|-------------------------------------------------2-----|
|-------------------------------------------------3-----|
|---------------------------------2---2---2---2---2-----|
|-----------------3-3-2-0-5-5-3-2-2---2---2---2---0-----|
|-3-3-2-0-5-5-3-2-----------------0---0---0---0---------|
|-------------------------------------------------------|

[ Tab from: http://www.guitartabs.cc/tabs/q/queen/ogre_battle_tab_ver_2.html ]
|-------------------------------------|----------------|
|-------------------------------------|----------------|
|-------------------------------------|----------------|
|-5-------------------------------2---|-----5-------2--|
|-5----5----------9---------------2---|-----5-------2--|
|-3----2v---x-x-0-7---*-x-x---x-x-0---|-x-x-3-----x-0--| C D


|------------------------2---------------------|
|----------3-------------3---------------------|
|----------2-------------2-----7---------------|
|-5------------------4---------7-----5---------|
|-5------------0-0-2---------5-5-----5---------|
|-3----2v----------------------------3-----0---|


|-----------------2---|---------------------|----|--------------------------------------2----|
|-----------------3---|---------------------|----|--------------------------------------3----|
|-----------------2---|---------------------|-0/-|--------------------------------------2----|
|-5---------------0---|---------------5h7---|-/0-|---------------5h7---5----------------0----|
|---3-2-0-------0-----|-3-2-0-3p0-5p0-------|----|-3-2-0-3p0-5p0-----------7---5--3--2-------|
|---------3-2-0-------|---------------------|----|-------------------------------------------|


|-----------------------------------|
|-----------------------------------|
|-----------------------------------|
|-5---------------------------------|
|-5----5-----------9----------------|
|-3----2---x-x-x-x-7---x---x-x-0tr--| G E C D

....


|--------------------|----|------------------------------------|
|--------------------|----|------------------------------------|
|-2---22---22---22---|-0/-|-2---22---22---22-204----4----4...--|
|-2---22---22---22---|-/0-|-2---22---22---22---4----4----4-----|
|-0---00---00---00---|----|-0---00---00---00---2---------2-----|
|-----------------420| 2X |--------------------------0200------|
Comments