Queen - My Melancholy Blues Chords & Tabs

 

My Melancholy Blues Chords & Tabs

Queen Chords & Tabs

Version: 1 Type: Tab 0 ratings
1 star 2 stars 3 stars 4 stars 5 stars
comments

My Melancholy Blues Tab

#----------------------------------PLEASE NOTE---------------------------------#
#This file is the author's own work and represents their interpretation of the #
#song. You may only use this file for private study, scholarship, or research. #
#------------------------------------------------------------------------------#


Queen: My melancholy blues


This is not an exact transcription just a sketch of an arrangement.
Listen the record, and if you have a little phantasy you can
creat your own melancholy blues...
hope this helps:




-----------------------------------4--
-4-5-4-5---------4-5-4-5-------6---6--
-3---------------2-------------4---7--
-5---------------4-------------6---6--
--------------------------------------
-3---------------2-------------4------

  

-------------0--0--0--40---4------4----
-------------0--0--0-0--0--4------4-7--
-------------1--1--1-----5-5------5-5--
-------------------------6----------6--
-------------------------6-------------
-------------0-----0-----4-------4-4---

[ Tab from: http://www.guitartabs.cc/tabs/q/queen/my_melancholy_blues_tab.html ]
---22-020--0-----------------------0----
---22--1-1--------------------5-----2---
---22--2----------------------46-4---30-
------------------------------6---------
-0-----0--------------------------------
----------------------------4------3----        

-0----0--------------------------------------7-5-----------
-2--4---4-2------------------------4-5-6-7-9---2--2--2--2--
-3-----------------------------4-6-----6-------2--2--2--2--
-------------------------------6-------6----------4--3--2--
---------------------------------------8-------------------
-3-----------------------------4---------------2-----------


'solo'
-7-97-9797--7-97-9---9---------0-20-2020---------020--
-9-----7----7---------129------2-----1----5-75-7-2----
-------------------10----10----2-----2----4------3----
------------0--------------11-------------6-----------
-7------6----------------------0-----0----------------
-------------------9----------------------4------3----  A/F# Gdim

---------------7-5-----------
-----4-5-6-7-9---2--2--2--2--
-4-6-----6-------2--2--2--2--
-6-------6----------4--3--2--
---------8-------------------
-4---------------2-----------



...

arranged by Pinter Denes
dpinter@eik.bme.hu
Comments