Queen - Love Of My Life Chords & Tabs

 

Love Of My Life Chords & Tabs

Queen Chords & Tabs

Version: 1 Type: Tab 0 ratings
1 star 2 stars 3 stars 4 stars 5 stars
comments

Love Of My Life Tab

   
LOVE OF MY LIFE
Words and music by Freddie Mercury

Transcribed by PINTER Denes
 (dpinter@eik.bme.hu) 
                         QUEEN : LOVE OF MY LIFE
                          concert version from
                              LIVE KILLERS


(SIX-string Arrangement)

Intro

E-|---10-10-10-10-10-10-10-8-8-8-8-7-7-7-7---5-5-5-5-5-5-5-|
B-|---10-10-10-10-10-10-10-8-8-8-8-8-8-8-8---6-6-6-6-6-6-6-|
G-|---11-11-11-11-11-11-11-9-9-9-9-7-7-7-7---5-5-5-5-5-5-5-|
D-|-0--------------------------------------0---------------|
A-|--------------------------------------------------------|
E-|--------------------------------------------------------|

E-|---7-7-7-7-7-7-7---5-5-5-5-5-5-5------|
B-|---8-8-8-8-8-8-8---6-6-6-6-6-6-6------|
G-|---7-7-7-7-7-7-7---5-5-5-5-5-5-5------|
D-|-0---------------0----------------|
A-|--------------------------------------|
E-|--------------------------------------|

    D                 Bm                Em                A
E-|-------2---------|-------2---------|-----------------|-------------0---|
B-|-3-2-3-------3---|-3-2-3-------3---|-8---------8-----|-2---3---5--\2---|
G-|-----------2-----|---------------4-|-9---9---9---7-9-|-2---------------|
D-|-0---------------|-----------4-----|-----------------|---2-4-2-5--\----|
A-|---------------4-|-2---------------|-7-7---7---------|-0---------0---0-|
E-|-----------------|-----------------|-----------------|-----------------|

    D                 Bm                  G       D
E-|-5-----------5---|--7----------------|-7-------5-------|
B-|-------7---------|---------7-7-------|---3-5-3---3-5-3-|
G-|-7-6-7---7-7-----|--7----7-----7--\0-|-----------------|
D-|-----------------|----11-------------|-----------------|
A-|-5-------------4-|--9------------0---|-----------------|
E-|-----------------|--7----------------|-3-------2-------|

    E                 A                 F#m               Bm...
E-|-4---2--/4--/7\--|-----5---5---5---|---2-5---4---2---|-7---------------|
B-|-0---0---0---0---|-2-------2---2---|-----2---2---2---|-7-------7-------|
G-|-1---2--/4--/7\--|---4---------2---|-----------------|-7---7-------7---|
D-|-2---4--/6--/9\--|-------2---2-----|-------4---4---4-|-9---------------|
A-|-----------------|-0---------------|-----------------|-9-9---9---9-----|
E-|---0---0---0-----|---------------4-|-2---------------|-7---------------|

E-|-----------------|-------3--3---5---5---5---5---|-10----2---|
B-|-----------------|-2-0---2--2-2-----------7-----|-7-----2---|
G-|-1---2---4--\1---|-----2-2--2-----7---7-------7-|-7-----2---|
D-|-2---4---6--\2---|------------------------------|-9-----4---|
A-|-2---------------|-0-----0--0-----0-------------|-9-----4---|
E-|-----------------|------------------------------|-7-----2---|

|---3-3-3---2-----3--2---2---|-----0---------5---2-----|
|-----3-3-----3---3--3-2-3---|-------3-2---2-------3---|
|-----4-4-------2-4--2---4---|---0-------2-------------|
|-----------0-----5--4---4---|---------0-------0-------|
|-----------------5--2---2---|-------------------------|
|-3---------------3--2-------|-0-----------------------|

|-10---9----7/9--5----|-7-------5-------|-0-----------------|
|-12---10---8/10-7----|---3-5-3---3-5-3-|-0-------------7\--|
|---------------------|-----------------|-1---2-/-4-/-7-----|
|----0----0--------7/-|-----------------|-2---4-/-6-/-9-----|
|---------------------|-----------------|-2---------7-------|
|---------------------|-3-------2-------|-0-0---0-----------|
[ Tab from: http://www.guitartabs.cc/tabs/q/queen/love_of_my_life_tab.html ]
                                         ?!?!?!?!?!?!?!?!?
|-----5-----5-----| (-----4---4---2---) |-----5---5---5---|---------7-------|
|-2-------2-------| (---2-2---2---2---) |-----9---9---9---|-----------7-----|
|---4-------------| (-----2---2-------) |-----6---6---6---|-------------7---|
|-------2---------| (-------4---4---4-) |-----------------|-9---9---------9-|
|-0---------------| (-----------------) |-------9---9---9-|---9---9---------|
|---------------4-| (-2---------------) |-2---------------|-7---------------|

|-0---------------|-0---3-3---0--2--5---5-----|
|-0---------------|-2-0---2---2-----------10--|
|-1---2-/-4-/-7-\-|-2-----0---0-------7-/-11--|
|-2---4-/-6-/-9-\-|-2-----2---2---0-------12--|
|-2---------------|-0-------------------------|
|-0---------------|---------------------------|

|-----3------------5---5-0---2---|-----------------|-2---3-/-5---6-----------|
|---0------2---2-3---3-----------|-3---2---------3-|-3---5-/-7---5-----------|
|------------2-------------2---2-|-4---2---------4-|-------------6-----------|
|----------------0---------------|-4---4---5---5---|---0---0---0-4-----------|
|--------0-----------------------|-2---4-----5-----|-------------------------|
|-0------------------------------|-----2---3-------|-------------2-----------|
                                                               
|---7-----7-------7-|-2---2-----(9)---8---7--|---0-3-2-0---3-|
|-----7-------7-----|-2-2---2----10--10---7--|-----------3---|
|-7-----7-------7---|-2----------11---8---8--|---------------|
|-------------------|-4----------11----------|---------------|
|-------------------|-4----------------------|---------------|
|-7-----------------|-2----------------------|-0-------------|

|---------3---0---------2---2---2---2---2----|
|-2---3---5-\-2------------------------------|
|-2-------------------2---2---2---2---2---2--|
|---2-4---5-\---2/7-0------------------------|
|-0-----0------------------------------------|
|--------------------------------------------|

|-2---2---0---2---0---2---3---2---0-----0-----5---5-----5--|
|-------------------------------------3---2-----2---5------|
|---2---2---2---2---2---2---2--(2)--2-----------------6----|
|-0-----------0-------0---2---0-------------2--------------|
|---------4-------4---------------4---2---0----------------|
|----------------------------------------------------------|

|-0---0-2-3-----3---3-----15---|-10---9----7/9---5-----|-7-------5--------|
|-1---1---3-3---------3---15---|-12---11---9/11--7-----|---3-5-3---3-5-3--|
|-0---2---4-------5-----5-16---|-----------------------|------------------|
|-2-2-----5---5----------------|----0----0---------7/--|------------------|
|-0-------5--------------------|-----------------------|------------------|
|---------3--------------------|-----------------------|-3-------2--------|

|-0---------------------------0---|-7----2----------3---2------3--2--2----|
|-0---------------2---3-/-5-/-8---|-7----2----------3-----3----3--3--3----|
|-1---3---4---7---2---4-/-6-/-9---|-7----2------------------2--3--2--4----|
|-2---4-/-6-/-9---2---------------|-9----4----5---5-----0------4--0--4----|
|-2---------------0-0---0---0-0---|-9----4------5--------------5-----2----|
|-0-0---0-------------------------|-7----2----3-------x--------3----------|

|-0---0--------5---2---5---5----10\---2---2---0---0---3---5-----5---|
|-0-----3--2-----2---3---7---5--10\---3---2---0-----3-3-3---3-----3-|
|-1--------2--------------------11\---4---2---1-------3-------------|
|-2--------2-2-----0------------------4---4---2---------------0-----|
|-2--------0------------------------------4---2---------------------|
|-0-0-------------------------------------2---0-0-----3-------------|

|-10---5--------10--|
|--7---7--------10--|
|------7-----11-----|
|----------0--------|
|-------------------|
|-------------------|

Comments