Queen - Liar Chords & Tabs

 

Liar Chords & Tabs

Queen Chords & Tabs

Version: 1 Type: Tab 0 ratings
1 star 2 stars 3 stars 4 stars 5 stars
comments

Liar Tab

Liar
Words and music by Freddie Mercury
Transcribed by Richard Boodell
intro part
|-----------------------------------------------------------------------|
|-----------------------------------------------------------------------|
|-2--------2------2-----2-----2-----2-6r4p2-----2---2----2-----2-----2--|
|-2---------------------2---2---------------4-2-2--------------------2--|
|-0----3b4---3b4----3b4-0-------3b4-------------0----3b4---3-4---3b4-0--|
|-----------------------------------------------------------------------|

|-2----------------------------------------------------------------------------
|---5-------------------------2-----3---------------------------------8---7----
|--(0)--6r4p2-------------2---2-----------2-4------2---2---2-0---2--------7----
|-------------4-2-2-2-2-2-----2---2---0h4----------2---2---2-0---2---7---------
|-----------------0-0-0-0-----0---------------3b4--0-------0-----0-------------
|---------------------------------------------------------------------------8b-

|----------------------------------------------5---------7---|
|-----7h8---7---7h8---5--------7h8---7---7h8---5-----8---7---|
|-----7h9---7---7h9---6--------7h9---7---7h9---6-----9---9---|
|-----7-----7---7-----7--------7-----7---7-----7-------------|
|-0-0--------------------------------------------------------|
|------------------------------------------------------------|

|--------------7-----9-----10-----9-----7--------|
|-8-----10-------8-----8------8-----8-----8---10-|
|---9------9-------9-----9------9-----9-----9----|
|------------------------------------------------|
|------------------------------------------------|
|------------------------------------------------|
[ Tab from: http://www.guitartabs.cc/tabs/q/queen/liar_tab.html ]
0:51
|----------------------------------------------------------|
|-10\------------------------------------------------------|
|-9\----------9--------------------------------------------|
|-7\--------99---------------------------------------------|
|-7\--------77-5---7---5-------5-----7---5---7---5-------5-|
|------0-------------------5-7---0-------------------5-7---|

|------------------------------------------------|
|------------------------------------------------|
|-----9---7---9---7-------------9---7---9-\\\\---|
|-----9---7---9---7-------------9---7---9-\\\\---|
|-----7---5---7---5-------5-----7---5---7-trem.--|
|-0-------------------5-7---0--------------------|

|------------------------------------------------------|
|------------------------------------------------------|
|------------------------------------------------------|
|-----------------------------7b9r__7--7---7---7p5-----|
|-----7---5---7---5-------5------------------------7---|
|-0-------------------5-7---0--------------------------|

|-----------------------------|----|
|-----------------------------|----|
|-----------------------------|-0/-|
|-----9-----9-----9-----9-----|-/0-|
|-----7-----7-----7-----7-----|----|
|-0-0---0-0---0-0---0-0-------|----|

1:14
|--------------------------------------------------------------------|
|-------------------------------------------------7---7-9-7-9-9b10---|
|-------------------------------6---6-7-6-7-9-7-9---9----------------|
|-------------6---6-7-6-7-9-7-9---9----------------------------------|
|-7-6-7-9-7-9---9----------------------------------------------------|
|--------------------------------------------------------------------|
|
|--------------------------------------------------------------------|
|--------------------------------------------------------------------|
|-------------------------------------------6---6-7-6-7-9-7-9-9b11---|
|-------------------------6---6-7-6-7-9-7-9---9----------------------|
|-------------7-6-7-9-7-9---9----------------------------------------|
|--------------------------------------------------------------------|




Comments