Queen - Liar Chords & Tabs

 

Liar Chords & Tabs

Queen Chords & Tabs

Version: 2 Type: Bass Tab 0 ratings
1 star 2 stars 3 stars 4 stars 5 stars
comments

Liar Bass Tab

Queen - Liar

Written by: Freddie Mercury
Artist: Queen
Album: Queen
Year: 1973


Tabbed by: Niek Lucassen (innuendo65@hotmail.com)
Tabbed at: August 26 2001, 2:02 AM


This is the famous bass guitar solo from the song 'Liar'

This solo comes around 5.10 minutes (after the 'All Day Long' verse)

I you have requests or questions please e-mail me at: innuendo65@hotmail.com


G|--------------|--------------|
D|--2--4--5--7--|--9-11-12-13--|
A|--------------|--------------|
E|--------------|--------------|

G|--------------|--------------|--------------|--------------|
D|--14-15-16-15-|--14-15-16-15-|--14-15-16-15-|--14-15-16-15-|
A|--------------|--------------|--------------|--------------|
E|--------------|--------------|--------------|--------------|
[ Tab from: http://www.guitartabs.cc/tabs/q/queen/liar_btab_ver_2.html ]
G|--------------|--------------|--------------|--------------|
D|--14-15-16-15-|--14-15-16-15-|--14-15-16-15-|--14-15-16-15-|
A|--------------|--------------|--------------|--------------|
E|--------------|--------------|--------------|--------------|

G|--------------|--------------|--------------|--------------|
D|--14-15-16-15-|--14-15-16-15-|--14-15-16-15-|--14-15-16-15-|
A|--------------|--------------|--------------|--------------|
E|--------------|--------------|--------------|--------------|

G|--------------|--------------|--------------|--------------|
D|--14-12-10-9--|--7--5--4--2--|--------------|--------------|
A|--------------|--------------|--5--3--2--0--|--2--0--------|
E|--------------|--------------|--------------|--------3--2--|

G|-----------------------|
D|-----------------------|
A|-----------------------|
E|-7-7-7-7---7-7-7-7-7---|
Comments