Queen - Hammer To Fall Chords & Tabs

 

Hammer To Fall Chords & Tabs

Queen Chords & Tabs

Version: 4 Type: Tab 0 ratings
1 star 2 stars 3 stars 4 stars 5 stars
comments

Hammer To Fall Tab

queen= hammer to fall

-----------------------------------12b14-10-9-10--------------------|
----------10-12b14r12-10-12b14r12-----------------10-12b14-10h12p10-|
--6--689------------------------------------------------------------|
--------------------------------------------------------------------|
--------------------------------------------------------------------|
--------------------------------------------------------------------|

[ Tab from: http://www.guitartabs.cc/tabs/q/queen/hammer_to_fall_tab_ver_4.html ]
-17--17p16p14-----------------------------------------------------------------------------------------------|
--------------17-16-14-16-17-------------17-16-14----------------------------------------------------16b18--|
-----------------------------14-14-14b16----------14h15-12--------------------------------------------------|
-----------------------------------------------------------14-12-11-------12-11------12-11--12-11-----------|
-------------------------------------------------------------------12-12------12-12-------12-----12---------|
------------------------------------------------------------------------------------------------------------|
Comments