Queen - Fight From The Inside Chords & Tabs

 

Fight From The Inside Chords & Tabs

Queen Chords & Tabs

Version: 2 Type: Tab 0 ratings
1 star 2 stars 3 stars 4 stars 5 stars
comments

Fight From The Inside Tab

   
Queen: Fight From The Inside
Album: News of the world 

|-------------------------|--3------3-----------------|
|-3-----------------------|--3------3-----------------|
|-2b___4r__p0-------------|-b4------4r2___p0-----9\---|
|---------------x---9\2---|------------------2---9\---|
|---------------x---7\0---|---------------------------|
|-------------------------|---------------------------|

riff A
|---------------------------------------------------------------3----|
|---------------------------------------------------------------3----|
|-----------------------------------------------------------0---2b4--|
|-5\-----------------------0----------------------------0h2-0-2------|
|-5\-------7-----7-----0h2---2p0------------7-----7---0-0h2----------|
|-5\---0-----0-0---0-------------3b-----0-----0-0---0----------------|

|----------------------------------------------------------3----|
|----------------------------------------------------------3----|
|------------------------------------------------------0---2b4--|
|---------------------0---2------------------------0h2-0--------|
|-----7-----7-0---0h2---2--------------7-----7---7-0h2---1------|
|-0-----0-0---0-------------3b-----0-----0-0---0----------------|


|-----------------------------------------------------------------|
|-----------------------------------------------------------------|
|-7h9-9---9p7---7h9-9-9p7-9p7-----7h9-9p7-9p7-----7---------------|
|-------------9---------------9p7-------------9p7---9p7-5b--------|
|-------------------------------------------------------------7---|
|-----------------------------------------------------------------|
|                  riff B                                         |
|-----------------------------------------------------------------|
|-----------------------------------------------------------------|
|-----------------------------------------------------6/7---------|
|-7/9-9---9-----7/9---9-----------7/9-9---9-------7---4/5---------|
|-5/7-7---7-----5/7---7-----------5/7-7---7-------5-----------x-x-|
|---------------------0---------------------------------------x-x-|

riffB X 4


Riff C:
|...------|-------------------------------|--------|----------------------------------|----------|-------|
|...------|-7-7---7---7-7-7/9-------------|--------|-14-14---14---7-7-7/9-------------|----------|-------|
|...------|-7-7---7---7-7-7/9-------------|-0/-----|-14-14---14---7-7-7/9-------------|-0/-------|-0/----|
|...------|-7-7---7---7-7-7/9-------------|-/0-----|-14-14---14---7-7-7/9-------------|-/0-------|-/0----|
|...5-x-x-|-5-5---5---5-5-5/7-------------|--------|-12-12---12---5-5-5/7-------------|----------|-------|
|...--x-x-|----------------------x-x-x-x--|--x-x-x-|--------------------------x-x-x-x-|--x---x-x-|-------|
[ Tab from: http://www.guitartabs.cc/tabs/q/queen/fight_from_the_inside_tab_ver_2.html ]
|----------------------------------------------------------------|
|----------------------------------------------------------------|
|---------------------------------------------5------------------|
|-5h7-7p5-7-----5h7p5-7---x---x---5/7-7p5-7---5------------------|
|-5h7-7p5-7-----5h7p5-7---x---x---5/7-7p5-7----------7-5-7-5-----|
|----------------------------------------------------------------|
| Riff D (1)
|----------------------------------------------------------------|
|----------------------------------------------------------------|
|---------------------------------------------5------------------|
|-5h7-7p5-7-------------5-7p5-7---5/7-7p5-7---5------------5-----|
|-5h7-7p5-7---------------7p5-7---5/7-7p5-7----------5-7-7-5-----|
|----------------------------------------------------------------|

|----------------------------------------------------------------|
|----------------------------------------------------------------|
|---------------------------------------------5------------------|
|-5h7-7---7-----5h7p5-7---x---x-x-5h7-7p5-7---5------------5-----|
|-5h7-7---7-----5h7p5-7---x---x-x-5h7-7p5-7----------7-5-7-5-----|
|----------------------------------------------------------------|
| Riff D (2)
|----------------------------------------------------------------|
|--------------------------------------------------(5)-----------|
|---------------------------------------------5------------------|
|-7p5-7p5-------------------------5/7-7p5-7---5------------5-----|
|-7p5-7p5-------------------------5/7-7p5-7----------7-5-7-5-----|
|----------------------------------------------------------------|

|----------------------------------------------------------------|
|----------------------------------------------------------------|
|---------------------------------------------5------------------|
|-5h7-7p5-7-----5h7p5-7---x---x-x-5h7-7p5-7---5------------5-----|
|-5h7-7p5-7-----5h7p5-7---x---x-x-5h7-7p5-7----------7-5-7-5-----|
|----------------------------------------------------------------|
| Riff D (3)
|----------------------------------------------------------------|
|----------------------------------------------------------------|
|---------------------------------------------5------------------|
|-7p5-7p5-----7p5-7p5-7-----------7p5-7p5-x---5------------5-----|
|-7p5-7p5-----7p5-7p5-7-----------7p5-7p5-x----------7-5-7-5-----|
|----------------------------------------------------------------|

|------------------------------|--------|
|-7-7---7---7-7-7/9------------|--------|
|-7-7---7---7-7-7/9------------|-0/-----|
|-7-7---7---7-7-7/9------------|-/0-----|
|-5-5---5---5-5-5/7------------|--------|
|----------------------x-x-x-x-|--------|

riffA X 2
riffB X 5
RiffC 
RiffD

|-----------------------------------------------------------------------------------------------xx-|
|-7-7---7---7-7-7/9---------14-14---14---7-7-7/9--------9-9-------9-9------9-9-9-9------9-9-----xx-|
|-7-7---7---7-7-7/9---------14-14---14---7-7-7/9--------9-9-------9-9------9-9-9-9------9-9-----xx-|
|-7-7---7---7-7-7/9---------14-14---14---7-7-7/9--------9-9-------9-9------9-9-9-9------9-9-----xx-|
|-5-5---5---5-5-5/7---------12-12---12---5-5-5/7--------7-7-------7-7------7-7-7-7------7-7-----xx-|
|--------------------------------------------------------------------------------------------------|
Comments