Queen - Death On Two Legs Chords & Tabs

 

Death On Two Legs Chords & Tabs

Queen Chords & Tabs

Version: 1 Type: Tab 0 ratings
1 star 2 stars 3 stars 4 stars 5 stars
comments

Death On Two Legs Tab

Death on two legs (Mercury, Freddie)
Queen


                           This is the main riff for the song.
                           It sounds pretty good i think



[ Tab from: http://www.guitartabs.cc/tabs/q/queen/death_on_two_legs_tab.html ]
E|------------------------------------------------------------ 	          
B|------------------------------------------------------------
G|------------------------------------------------------------
D|-9-----------------9-8-------7------------------------------
A|-----------------9---------9--------------------------------
e|------------------------------------------------------------



E|------------------------------------------------------------ 	          
B|------------------------------------------------------------
G|------------------------------------------------------------
D|-6-----------------0--4-5----4------------------------------
A|-----------------2---------5--------------------------------
e|------------------------------------------------------------


 



theirisnofork@gmail.com
Comments