Queen - Crazy Little Thing Called Love Chords & Tabs

 

Crazy Little Thing Called Love Chords & Tabs

Queen Chords & Tabs

Version: 4 Type: Bass Tab 0 ratings
1 star 2 stars 3 stars 4 stars 5 stars
comments

Crazy Little Thing Called Love Bass Tab

Standard Tuning

Rather than messing about with which bits to play and in which order I'm just
gonna write the whole thing as it's played.  I don't think the guy from
Queen plays it this far up the neck, it's just how I find in comfortable to
play.  Please leave comments (hopefully nice ones)

\ = slide down
x = half play the note
h = hammer on

G|-----------------------------------9-------------|
D|-----------9-----------9----9-1212---10-10-9-9---|
A|----9-1212------9-1212---10-------------------10-|
E|-10----------10----------------------------------|

G|-----------------------------------9-------------|
D|-----------9-----------9----9-1212---10-10-9-9---|
A|----9-1212------9-1212---10-------------------10-|
E|-10----------10----------------------------------|

G|-------------------------------------|
D|---------9--------------------9-9h12-|
A|----9-12-----------------9-12--------|
E|-10--------6-66-6-8-8-10-------------|



G|--------------------------------------9-------------|
D|--------------9-----------9----9-1212---10-10-9-9---|
A|-------9-1212------9-1212---10-------------------10-|
E|-19\10----------10----------------------------------|

G|-----------------------------------9-------------|
D|-----------9-----------9----9-1212---10-10-9-9---|
A|----9-1212------9-1212---10-------------------10-|
E|-10----------10----------------------------------|

G|-------------------------------------|
D|---------9--------------------9-9h12-|
A|----9-12-----------------9-12--------|
E|-10--------6-66-6-8-8-10-------------|



G|-------------------------------------------------------|
D|-------------------------------------------------------|
A|-14\10-------------10--------------------10-10---------|
E|-------12-10-10h12----12-10-10h12-8-8-8-8-----12-10-12-|

G|------------------------------------------------------|
D|------------------------------------------------------|
A|-13-12-10--------------7-7---------------7-6-5--------|
E|----------13-11-10-8-6-----5-5-0----------------7-6-5-|

G|--------------------------------|
D|--------------------------------|
A|-------------------1212-10-9----|
E|-12-12-12-12-12-12-----------12-|
[ Tab from: http://www.guitartabs.cc/tabs/q/queen/crazy_little_thing_called_love_btab_ver_4.html ]
G|-----------------------------------9-------------|
D|-----------9-----------9----9-1212---10-10-9-9---|
A|----9-1212------9-1212---10-------------------10-|
E|-10----------10----------------------------------|

G|-----------------------------------9-------------|
D|-----------9-----------9----9-1212---10-10-9-9---|
A|----9-1212------9-1212---10-------------------10-|
E|-10----------10----------------------------------|

G|-------------------------------------|
D|---------9--------------------9-9h12-|
A|----9-12-----------------9-12--------|
E|-10--------6-66-6-8-8-10-------------|



G|-----------------------------------------|
D|-8------8-8------------------------12----|
A|---10-8----10-8-8-------10-10---12----12-|
E|------------------10-10------10----------|

G|------------------------------------------------------|
D|------------------------------------------------------|
A|-13-12-10--------------7-7---------------7-6-5--------|
E|----------13-11-10-8-6-----5-5-0----------------7-6-5-|

G|---------------------|
D|---------------------|
A|-------------9-11-12-|
E|-12-12-12-12---------|

Rest (clap)

G|---------------------------------------------9-------------|
D|---------------------9-----------9----9-1212---10-10-9-9---|
A|-xh10-9-------9-1212------9-1212---10-------------------10-|
E|--------12-10----------10----------------------------------|

G|-----------------------------------9-------------|
D|-----------9-----------9----9-1212---10-10-9-9---|
A|----9-1212------9-1212---10-------------------10-|
E|-10----------10----------------------------------|

G|---------------------------------------------------------------|
D|---------9--------------------9-9h12---------------------------|
A|----9-12-----------------9-12----------------------------------|
E|-10--------6-66-6-8-8-10-------------6-66-6-8-8-10-10-1010-1010|

G|---------------------------------------------------|
D|--------------------9------------10-10-12-12-12-12-|
A|---------------9-12---13-1313-13-------------------|
E|-6-66-6-8-8-10-------------------------------------|

G|---------------------------------------------------------------------------|
D|------------10-10------------------------------------------10-10-----------|
A|-13-1313-13---------9-12-9\--------------9-12-9-13-1313-13----------9-12-9-|
E|-----------------10--------6-66-6-8-8-10-------------------------10--------|
Comments