Queen - Another One Bites The Dust Chords & Tabs

 

Another One Bites The Dust Chords & Tabs

Queen Chords & Tabs

Version: 7 Type: Tab 0 ratings
1 star 2 stars 3 stars 4 stars 5 stars
comments

Another One Bites The Dust Tab

D-------------------------------------------------------------
A-----------------------1-------------------------------------
E----1--1--1-----1-1-4-1--------------------------------------
(Numbre of times you want to do .. 5-6-7 .. whatever)

[ Tab from: http://www.guitartabs.cc/tabs/q/queen/another_one_bites_the_dust_tab_ver_7.html ]
D-------------------------------------------------------------
A----4-4--5-6------4-4--5-6-----4-4--5-6------1-1-1-2-3-------
E-------------4--------------------------4-----------------4--

D-------------------------------------------------------------
A-----------------------1-------------------------------------
E----1--1--1-----1-1-4-1--------------------------------------


ETC ETC !!!
Comments