Queen - Another One Bites The Dust Chords & Tabs

 

Another One Bites The Dust Chords & Tabs

Queen Chords & Tabs

Version: 2 Type: Tab 6 ratings
1 star 2 stars 3 stars 4 stars 5 stars
comments

Another One Bites The Dust Tab

Main riff:

|-----------------------------------------------|
|-----------------------------------------------|
|-----------------------------------------------|
|-----------------------------------------------|
|-------------------------------------0---------|
|--0-----0------0-------0-0-0--3--0-------------|

Play that as long as you are supposed to, every once
in a while do this:
[ Tab from: http://www.guitartabs.cc/tabs/q/queen/another_one_bites_the_dust_tab_ver_2.html ]
|-----------------------------------------------|
|-----------------------------------------------|
|-----------------------------------------------|
|-----------------------------------------------|
|-----------------------------------0------2p0--|
|--0-----0-------0-----0-0-0--3--0--------------|

Interlude:

|-----------------------------------------------|
|-----------------------------------------------|
|-----------------------------------------------|
|-----------------5-----------------------------|
|---3-3--3--4--5---------3-3--3--4--5-----------|
|--------------------3------------------3-------|

|-----------------------------------------------|
|-----------------------------------------------|
|-----------------------------------------------|
|-----------------------------------------------|
|---9-9-9--10--11-------------------------------|
|---7-7-7--8---9--------------------------------|


there ya go!


Comments