Quarterflash - Harden My Heart Chords & Tabs

 

Harden My Heart Chords & Tabs

Quarterflash Chords & Tabs

Version: 1 Type: Tab 0 ratings
1 star 2 stars 3 stars 4 stars 5 stars
comments

Harden My Heart Tab

   
#----------------------------------PLEASE NOTE--------------------------------#
#This file is the author's own work and represents their interpretation of the#
#song. You may only use this file for private study, scholarship, or research.#
#-----------------------------------------------------------------------------#
#-----------------------------------------------------------------------------#
#   If you like this tab, please rate it above.  Thank you.
#-----------------------------------------------------------------------------#

Tabbed by John Shaw (jashaw@shaw-web.net)
Artist:Quarterflash

SAX Solo
e|---------------7------| x2
B|------------7h9-9-b11-|
G|-----------9----------|
D|-----11-9-------------|
A|-9-12-----9-----------|
E|----------------------|
[ Tab from: http://www.guitartabs.cc/tabs/q/quarterflash/harden_my_heart_tab.html ]
Guitar Fills
                       G   A   Bm   A    G     Bm  A  G  A   Bm          A        G A Bm 
A G
e|---------------------------------------------7---5--3--5----7----------5--------3-5-7--5-3-|
B|-------------7-5-3-2-0---2---3----2----0-----7---5--3--5----7--7-------5--7-----3-5-7--5-3-|
G|-------------7-6-4-2-0---2---4----2----0-----7---6--4--6----7--7--7-7--6--7-6-6-4-6-7--6-4-|
D|---------------------------------------------9---7--5--7----9-----9-9--7----7-7-5-7-9--7-5-|
A|---------------------------------------------9---7--5--7----9----------7--------5-7-9--7-5-|
E|---------------------------------------------7---5--3--5----7----------5--------3-5-7--5-3-|
...for you are lies

Guitar Solo (* Natural Harmonic)
e|----------------7----5-----3\2--------------------8-----*5-----*7-------*12--------9-7-----|
B|-7-----------/7-7-/5-5--/3-3\2------------------------*5--*5-*7--*7--*12---*12---10---7----|
G|--7-9-7---7-----------------------7-9/11--11\9p7-7-----------------------------11------9---|
D|---9---7h9-9-------------------7h9--------------9--9------------------------------------7--|
A|-----------------------------------------------------------------------------------------9-|
E|-------------------------------------------------------------------------------------------|
Comments